Log in

One click and you are in

Login with Facebook Login with Google

Why sign up and log in

Guitar Tabs Explorer
Mikky Ekko bass tabs for Who are you really

Bass tabs

Tuning: Standard (E A D G)

think 3/4 time. tempo is around 140-145 bpm


Intro: come in at 0:10

G|---------------------------------------------------------------------------|
D|---------------------------------------------------------------------------|
A|------------4---------------4----------------------------------------------| x6
E|----6h4--6-----6h4--6h4--6-------------------------------------------------|

Verse 1:

so you feel entitled...

G|---------------------------------------------------------------------------|
D|---------------------------------------------------------------------------|
A|------------------------------4--------------------------------------------|
E|--6--x-6--6---1--1--1---2-2-2---2-2---4--4--4------------------------------|


G|---------------------------------------------------------------------------|
D|---------------------------------------------------------------------------|
A|--------4------------------------------------------------------------------|
E|--6-6-6---6-6---1--1--1---2--x-2--2---4-4-4-4-4-4--------------------------|


G|---------------------------------------------------------------------------|
D|---------------------------------------------------------------------------|
A|----------4------------------------4---------------------------------------|
E|--6h4--6-----6h4---1--1--1---2-2-2---2-2---4-4-4-4-4-4---------------------|

Chorus:

G|---------------------------------------------------------------------------|
D|----------------------------------------------6---6\-----------------------|
A|--------------------------------------4------------------------------------| x3
E|---6-6-6--6-6-6----1-x-1-x-1-x---2-2-2---2-2----4--------------------------|

G|---------------------------------------------------------------------------|
D|---------------------------------------------------------------------------|
A|--------------------------------------4------------------------------------|
E|---6-6-6--6-6-6----1-x-1-x-1-x---2-2-2---2-2---4---6-----------------------|

interlude: come in at 1:15


G|---------------------------------------------------------------------------|
D|---------------------------------------------------------------------------|
A|------------4---------------4------------4------------4------------4-------|
E|----6h4--6-----6h4--6h4--6-----6h4--6h4-----6h4--6h4-----6h4--6h4----------|

G|---------------------------------------------------------------------------|
D|---------------------------------------------------------------------------|
A|--------------4------------4------------4----------------------------------|
E|----6h4--6h4-----6h4--6h4-----6h4--6h4-------------------------------------|


Verse 2:

now you're moving on...

G|---------------------------------------------------------------------------|
D|---------------------------------------------------------------------------|
A|------------4---------------4----------------------------------------------| x2
E|----6h4--6-----6h4--6h4--6-------------------------------------------------|

G|---------------------------------------------------------------------------|
D|---------------------------------------------------------------------------|
A|------------------------------4--------------------------------------------|
E|--6--x-6--6---1--1--1---2-2-2---2-2---4--4--4------------------------------|


G|---------------------------------------------------------------------------|
D|---------------------------------------------------------------------------|
A|--------4------------------------------------------------------------------|
E|--6-6-6---6-6---1--1--1---2r-----------------4-4-4-4-4-4-------------------|


Chorus:

G|---------------------------------------------------------------------------|
D|----------------------------------------------6---6\-----------------------|
A|--------------------------------------4------------------------------------| x3
E|---6-6-6--6-6-6----1-x-1-x-1-x---2-2-2---2-2----4--------------------------|

G|---------------------------------------------------------------------------|
D|---------------------------------------------------------------------------|
A|--------------------------------------4------------------------------------|
E|---6-6-6--6-6-6----1-x-1-x-1-x---2-2-2---2-2---4-4-4-4-4-4-----------------|


Outro:

see me bare my teeth...

G|---------------------------------------------------------------------------|
D|----------------------------------------------6---6\-----------------------|
A|--------------------------------------4------------------------------------| x3
E|---6-6-6--6-6-6----1-x-1-x-1-x---2-2-2---2-2----4--------------------------|

G|---------------------------------------------------------------------------|
D|---------------------------------------------------------------------------|
A|--------------------------------------4------------------------------------|
E|---6-6-6--6-6-6----1-x-1-x-1-x---2-2-2---2-2---4-4-4-4-4-4---6-------------|

************************************

| x  Dead note
| r  Release
| h  Hammer-on
| \  Slide down

************************************

Almost there ...

Sign in to get your own page with links to favourite songs and more. You are just one click away...

Login with Facebook Login with Google