Log in

One click and you are in

Login with Facebook Login with Google

Why sign up and log in

Guitar Tabs Explorer
Edo Maajka bass tabs for Mater vam jebem

Bass tabs

Key: Gm


Intro:

G|------------------------------------|
D|------------------------------------|
A|------------------------------------|
E|------------------------------------|


Verse 1:

G|------------------------------------|
D|------------------------------------|
A|------------------------------------|
E|--------3---3-----------------------| x12


Bridge:

G|------------------------------------|
D|------------------------------------|
A|------------------------------------|
E|--------3---3-----------------------| x4


Verse 2:

G|------------------------------------|
D|------------------------------------|
A|------------------------------------|
E|--------3---3-----------------------| x8


Verse 3:

G|------------------------------------|
D|------------------------------------|
A|------------------------------------|
E|--------3---3-----------------------| x4


Chorus:

G|------------------------------------|
D|------------------------------------|
A|------------------------------------|
E|--------3---3-----------------------| X4

Cheers And Enjoy!
Roland

Almost there ...

Sign in to get your own page with links to favourite songs and more. You are just one click away...

Login with Facebook Login with Google