Log in

One click and you are in

Login with Facebook Login with Google

Why sign up and log in

Guitar Tabs Explorer
Edison Glass tabs for When all we have is taken

When All We Have Is Taken tab by Edison Glass

Edison Glass tabs for When all we have is taken

Guitar tabs

Guitar 1 (down 1/2 step)

Intro
--------------------------|--------------------------------|
--------------------------|--------------------------------|
--7--7--7--7--7--7--7--7--|--7/11--11-11-11--9--9--9--96--|
--x--x--x--x--x--x--x--x--|--x------x--x--x--x--x--x--x----|
--5--5--5--5--5--5--5--5--|--5/9----9--9--9--7--7--7--74--|
--------------------------|--------------------------------|

--------------------------|--------------------------------|
--------------------------|--------------------------------|
--6--6--6--6--6--6--6--6--|--9--9--9--9--6--6--6--6--------|
--x--x--x--x--x--x--x--x--|--x--x--x--x--x--x--x--x--------|
--4--4--4--4--4--4--4--4--|--7--7--7--7--4--4--4--4--------|
--------------------------|--------------------------------|

--------------------------|--------------------------------|
--------------------------|--------------------------------|
--7--7--7--7--7--7--7--7--|--7/12--12-12-12-11-11-11------|
--x--x--x--x--x--x--x--x--|--x------x--x--x--x--x--x-------|
--5--5--5--5--5--5--5--5--|--5/10--10-10-10--9--9--9------|
--------------------------|--------------------------------|

--------------------------|--------------------------------|
--------------------------|--------------------------------|
--6--7--6--7--6--7--6--7--|--6--7--6--7--6--7--6--7--------|
--x--x--x--x--x--x--x--x--|--x--x--x--x--x--x--x--x--------|
--4--4--4--4--4--4--4--4--|--4--4--4--4--4--4--4--4--------|
--------------------------|--------------------------------|


verse
P.M. (repeat x14)        then x2              then x4
-----------2-----2------|-----------5-----5--|-----------------|
----3-3------3-3--------|----3-3------3-3----|---------2-----2-|
--4-----4---------------|--4-----4-----------|----2-2----2-2---|
------------------------|--------------------|--4-----4--------|
------------------------|--------------------|-----------------|
------------------------|--------------------|-----------------|

then x2
-----------------|
---------3-----3-|
----4-4----4-4---| and so on from there, you should be able to figure out the
--5-----5--------| rest of the picking from there.
-----------------|
-----------------|

Almost there ...

Sign in to get your own page with links to favourite songs and more. You are just one click away...

Login with Facebook Login with Google