Log in

One click and you are in

Login with Facebook Login with Google

Why sign up and log in

Guitar Tabs Explorer
Edison Glass tabs for Let go

Guitar tabs

-------------------------------------------------------------------------------
			                           Let Go - Edison Glass
-------------------------------------------------------------------------------
Tabbed by: SorryImAwesome.
Tuning: half-step down (Eb,Ab,Db,Gb,Bb,eb)

Guitar(s):
1 - Lead
2 - Rhythm


Intro:
Guitar 1 and 2:
|---------------------------7-7-|--------------------------7-7-7-|
|----------------------8----7-7-|----------------------8---7-7-7-|
|------------------7h9---9--7-7-|------------------7h9---9-7-7-7-|
|-----5---5h7/9-----------------|-----5---5h7/9------------------|
|-5h7---5-------10--------------|-5h7---5-------10---------------|
|-------------------------------|--------------------------------|2x


Verse 1:
Guitar 1:
"Singing..."   "...sweetly..."
|-5-----7-----|-----------------------------------------------------------------|
|-5(8x)-7(8x)-|-----------------------------------------------------[12---]-----|
|-5-----7-----|[5--]-----[4--]-----[7--]-----[7---]-----[11---]-----[---12](4x)-|
|-------------|[--7](4x)-[--5](4x)-[--9](4x)-[--10](4x)-[---12](4x)-------------|
|-------------|-----------------------------------------------------------------|
|-------------|-----------------------------------------------------------------|

|-5-----7-----|-----------------------------------------------------------------12-----|
|-5(8x)-7(8x)-|-----------------------------------------------------12----12----12(7x)-|
|-5-----7-----|[5--]-----[4--]-----[7--]-----[7---]-----11----11-------12----12-12-----|
|-------------|[--7](4x)-[--5](4x)-[--9](4x)-[--10](4x)----12----12--------------------|
|-------------|------------------------------------------------------------------------|
|-------------|------------------------------------------------------------------------|

Guitar 2:
|-5-----7-----|---------------------------------------|
|-5(8x)-7(8x)-|-7-----5-----7-----8-----10-----12-----|
|-5-----7-----|-5(8x)-4(8x)-7(8x)-7(8x)-11(8x)-12(8x)-|
|-------------|-7-----5-----9-----10----12------------|
|-------------|---------------------------------------|
|-------------|---------------------------------------|
Repeat, on the second time add a 12 on the high e string on the last chord.

Chorus:
Guitars 1 and 2:
"...Do tell..."                 "...No no no!"
|-x------7-7-x------7-7-7-|
|-x------7-7-x------7-7-7-|
|-x------7-7-x------7-7-7-|
|-x----------x------------|
|-x----------x------------|
|-x(12x)-----x(12x)-------|
Guitar 2 continues this while Guitar 1 plays the intro.


Verse 2:
Guitar 1:
"Sleepwalking, sleep, sleepwalking..."
|-5-----7-----|-------------------------------------------------------12--12-12-|
|-5(8x)-7(8x)-|-------------------------------------------------------12--12-12-|
|-5-----7-----|---5-5--5---4-4--4---7-7--7---7--7---7----11-11--11----12--12-12-|
|-------------|---7-7--7---5-5--5---9-9--9---10-10--10---12-12--12--------------|
|-------------|-----------------------------------------------------------------|
|-------------|-----------------------------------------------------------------|

The two guitars alternate, so I tabbed it out.

Guitar 2:
|-5-----7-----|----------------------------------------5-----------12-|
|-5(8x)-7(8x)-|-7--------5--------7--------8-----------5-----------12-|
|-5-----7-----|-5--------4--------7--------7-----------5-----------12-|
|-------------|-7--------5--------9--------10-------------------------|
|-------------|-------------------------------------------------------|
|-------------|-------------------------------------------------------|


Verse 3:
Guitar 1:
"You've stifled this too long..."
|---5-------7-----|--------------------------12-----15-----|
|---5(4x)---7(4x)-|--------------------------12(8x)-12(8x)-|
|-4/5-----5/7-----|-5-----4-----7-----7------12-----12-----|
|-----------------|-7(8x)-5(8x)-9(8x)-10(8x)---------------|
|-----------------|----------------------------------------|
|-----------------|----------------------------------------|

Guitar 2:
|---5-------7-----|-------3-----------------5-----7-----12-----|
|---5(4x)---7(4x)-|-7-----0-----7-----8-----5(4x)-7(4x)-12(8x)-|
|-4/5-----5/7-----|-5(8x)-4(8x)-7(8x)-7(8x)-5-----7-----12-----|
|-----------------|-7-----5-----9-----7------------------------|
|-----------------|--------------------------------------------|
|-----------------|--------------------------------------------|


BRIDGE (in my opinion, the best part in the song):
Guitar 1 and 2:
"Open your lips...  Let out a song...  Open your heart!...  And let it sing..."
|-0-0-0-0-----------0-0-0-0------------0-0-0-0~-------------0-0-0-0-0-|
|-0-0-0-0-----------0-0-0-0------------0-0-0-0~-------------0-0-0-0-0-|
|-0-0-0-0-----------4-4-4-4------------5-5-5-5~-------------2-2-2-2-2-|
|-2-2-2-2-----------4-4-4-4------------5-5-5-5~-------------2-2-2-2-2-|
|-2-2-2-2-----------2-2-2-2------------3-3-3-3~-------------0-0-0-0-0-|
|-0-0-0-0-------------------------------------------------------------|2x

During live performances, Guitar 1 plays this instead of the chants:
|------10-xx----xx------------|---------------------------|------12-10------------|
|---------xx-12-xx-8/10/12-12-|-----10/12~-10-10-8-8-10---|------------8/10/12-12-|
|-9/12----xx----xx------------|-9-9---------------------9-|-9/12------------------|
|-----------------------------|---------------------------|-----------------------|
|-----------------------------|---------------------------|-----------------------|
|-----------------------------|---------------------------|-----------------------|2x

Post-Bridge...thing:
Guitar 1:
|-0-|
|-0-|
|-0-|
|-2-|
|-2-|
|-0-|
  ^ just strum away...

...a couple of measures in, guitar 2 comes in gradually making volume.
Guitar 2:
|-12-|
|-12-|
|-12-|
|----|
|----|
|----|


Outro:
Guitars 1 and 2:
|---------------7-7-|---------------7-7-7-|---------------7~\-|---------------7-7-7-|
|---------------7-7-|---------------7-7-7-|---------------7~\-|---------------7-7-7-|
|---------------7-7-|---------------7-7-7-|---------------7~\-|---------------7-7-7-|
|-----5---7p5-------|-----5---7p5---------|-----5---7p5-------|-----5---7p5---------|
|-5h7---5-----5-----|-5h7---5-----5-------|-5h7---5-----5-----|-5h7---5-----5-------|
|-------------------|---------------------|-------------------|---------------------|


Outro cont'd:
Guitar 1 (each play octaves):
|--------------7-|--------------7-7-|
|-----8---10p8-7-|-----8---10p8-7-7-|
|-7h9---7------7-|-7h9---7------7-7-|
|----------------|------------------|
|----------------|------------------|
|----------------|------------------|2x

Guitar 2:
|--------------7-|--------------7-7-|
|--------------7-|--------------7-7-|
|--------------7-|--------------7-7-|
|-----7---7p5----|-----7---7p5------|
|-5h7---5--------|-5h7---5----------|
|----------------|------------------|2x

Final outro part:
Guitars 1 and 2:
|-5-----7-----12~-|
|-5(8x)-7(8x)-12~-|
|-5-----7-----12~-|
|-----------------|
|-----------------|
|-----------------|

BAM.  You've finished Let Go by Edison Glass... congratulations!

************************************

| /   slide up
| \   slide down
| h   hammer-on
| p   pull-off
| ~   vibrato
| +   harmonic
| x   Mute note
| b   Bend
| pb  Pre-bend
| br  Bend release
| pbr Pre-bend release
| brb Bend release bend

Almost there ...

Sign in to get your own page with links to favourite songs and more. You are just one click away...

Login with Facebook Login with Google