Log in

One click and you are in

Login with Facebook Login with Google

Why sign up and log in

Guitar Tabs Explorer
Eden (ireland) guitar tabs for Isohel

Guitar tabs with lyrics

Tuning: Standard (E A D G B E)


{Verse 1}

        Ten tonne, ballast on my chest as I woke up
e|------------------------------------------------------|
B|------------------------------------------------------|
G|---------1------1------1------1------1------1------1--|
D|------------------------------------------------------|
A|------------------------------------------------------|
E|------0------0------0------0------0------0------0-----|

        a heavy inhale for nights you stole                 oh oh
e|-----------------------------------------------------------------|
B|-----------------------------------------------------------------|
G|--------1-----1-----1-----6----6----6----6----4----4h6--4----1---|
D|-----------------------------------------------------------------|
A|-----------------------------------------------------------------|
E|------0-----0-----0-----5----5----5----5----5----5---------------|


e|----------------------------------------------------|
B|----------------------------------------------------|
G|---------1------1------1------1------1------1------1|
D|----------------------------------------------------|
A|----------------------------------------------------|
E|------0------0------0------0------0------0------0---|


        Fucked up, the balance in my head but it's all good
e|---------------------------------------------------------|
B|---------------------------------------------------------|
G|--------1-----1-----1-----1-----1-----1-----1-----1-----1|
D|---------------------------------------------------------|
A|---------------------------------------------------------|
E|-----0-----0-----0-----0-----0-----0-----0-----0-----0---|


    I'll see you again another           (dream)               oh oh
e|------------------------------------------------------------------------------------------|
B|------------------------------------------------------------------------------------------|
G|-----1-----1-----1----6-----6-----6-----6-----4----4h6-4--1----1-----1-----1-----1-----1--|
D|------------------------------------------------------------------------------------------|
A|------------------------------------------------------------------------------------------|
E|--0-----0-----0-----5-----5-----5-----5-----5----5----------0-----0-----0-----0-----0-----|


{Chorus}

    But I miss the way the sun streamed through my window
e|--------------------------------------------------------------------------------|
B|--------------------------------------------------------------------------------|
G|----1-----9----9----9----8----8----8----8----8---4---4---4---4---6---6---6---6--|
D|--------------------------------------------------------------------------------|
A|--------------------------------------------------------------------------------|
E|-0------9----9----9----7----7----7----7----7---4---4---4---4---5---5---5---5----|


         And I miss the way you almost held the tide
e|-----------------------------------------------------------|
B|-----------------------------------------------------------|
G|----6----6-----1----1-----1-----1-----1-----1---4----4----4|
D|-----------------------------------------------------------|
A|-----------------------------------------------------------|
E|--5----5----0----0-----0-----0-----0-----0----4----4----4--|


       But still it's nice, dreaming that you're somewhere
e|-------------------------------------------------------------------|
B|-------------------------------------------------------------------|
G|-----4-----4-----4-----9-----9-----9-----9-----8----8----8----8----|
D|-------------------------------------------------------------------|
A|-------------------------------------------------------------------|
E|---4-----4-----4----9-----9-----9-----9------7----7----7----7------|


              Feeling the same heat that I did
e|------------------------------------------------------------------|
B|------------------------------------------------------------------|
G|----4----4----4-----4----6----6----6----6-----1-----1-----1-----1-|
D|------------------------------------------------------------------|
A|------------------------------------------------------------------|
E|--4----4----4----4-----5----5----5----5----0-----0-----0-----0----|


         Another time (I know I know) If invisible lines lead your way back to me
e|----------------------------------------------------------------------------------|
B|----------------------------------------------------------------------------------|
G|------1-----1------4-----4-----4-----4-----4------6-----6-----6-----6-----6-----6-|
D|----------------------------------------------------------------------------------|
A|----------------------------------------------------------------------------------|
E|---0-----0------4-----4-----4-----4-----4------5-----5-----5-----5-----5-----5----|


                                             Walk the line
e|----------------------------------------------------------------------------------|
B|----------------------------------------------------------------------------------|
G|-------1------1------1------1------1------1------1----8----8----8----8----8----8--|
D|----------------------------------------------------------------------------------|
A|----------------------------------------------------------------------------------|
E|-----0------0------0------0------0------0------0----7----7----7----7----7----7----|


{Verse 2}

                 I said I'd walk you home but we still went out own way
e|--------------------------------------------------------------------|
B|--------------------------------------------------------------------|
G|----1-------------------1-----1-----2-----2-----2-----2-----2-----2-|
D|--------------------------------------------------------------------|
A|--------------------------------------------------------------------|
E|--0-------------------0-----0-----2-----2-----2-----2-----2-----2---|


       The tears lost in rain on your cheekbones in silence
e|--------------------------------------------------------------|
B|--------------------------------------------------------------|
G|--------2-----2-----2-----9-----9-----9-----9-----9-----9-----|
D|--------------------------------------------------------------|
A|--------------------------------------------------------------|
E|-----2-----2-----2-----9-----9-----9-----9-----9-----9--------|


      And I pulled my head out the darkness in your house
e|----------------------------------------------------------|
B|----------------------------------------------------------|
G|--------9-----9-----8-----8-----8-----8-----8-----8-----8-|
D|----------------------------------------------------------|
A|----------------------------------------------------------|
E|-----9-----9-----7-----7-----7-----7-----7-----7-----7----|


      Can't stay 'til the morning, refracted my way out
e|--------------------------------------------------------------|
B|--------------------------------------------------------------|
G|--------8-----8-----8-----6-----6-----6-----6-----6-----6-----|
D|--------------------------------------------------------------|
A|--------------------------------------------------------------|
E|-----7-----7-----7-----5-----5-----5-----5-----5-----5--------|


     From nightmares in my car, as I lay beside you
e|-----------------------------------------------------|
B|-----------------------------------------------------|
G|--------6-----6-----6-----2-----2-----2-----2-----2--|
D|-----------------------------------------------------|
A|-----------------------------------------------------|
E|-----5-----5-----5-----2-----2-----2-----2-----2-----|


        And fucked up my timeline and twisted your end with
e|-----------------------------------------------------|
B|-----------------------------------------------------|
G|--------2-----2-----2-----9-----9-----9-----9-----9--|
D|-----------------------------------------------------|
A|-----------------------------------------------------|
E|-----2-----2-----2-----9-----9-----9-----9-----9-----|


         So much still to go, as the sun sets behind you
e|-----------------------------------------------------|
B|-----------------------------------------------------|
G|--------9-----9-----8-----8-----8-----8-----8-----8--|
D|-----------------------------------------------------|
A|-----------------------------------------------------|
E|-----9-----9-----7-----7-----7-----7-----7-----7-----|


      I can't let it go, you can't hold me, I can't always oh
e|-----------------------------------------------------------|
B|-----------------------------------------------------------|
G|--------8-----8-----6-----6-----6-----6-----6-----6-----6--|
D|-----------------------------------------------------------|
A|-----------------------------------------------------------|
E|-----7-----7-----5-----5-----5-----5-----5-----5-----5-----|

{Bridge}

    Oh, oh                Talk it out
e|---------------------------------------|
B|---------------------------------------|
G|-----------------1---------------------|
D|---------------------------------------|
A|---------------------------------------|
E|-----------------0---------------------|

             Cut me off
e|---------------------------------|
B|---------------------------------|
G|-----6---------------------------|
D|---------------------------------|
A|---------------------------------|
E|-----5---------------------------|

             Chalk it down
e|---------------------------------|
B|---------------------------------|
G|-----9---------------------------|
D|---------------------------------|
A|---------------------------------|
E|-----9---------------------------|


            To my head, ba-balancing my head
e|------------------------------------------|
B|------------------------------------------|
G|-----6------------------------------------|
D|------------------------------------------|
A|------------------------------------------|
E|-----5------------------------------------|


              Slow it down
e|---------------------------------|
B|---------------------------------|
G|-----1---------------------------|
D|---------------------------------|
A|---------------------------------|
E|-----0---------------------------|


             rise and fall
e|---------------------------------|
B|---------------------------------|
G|-----6---------------------------|
D|---------------------------------|
A|---------------------------------|
E|-----5---------------------------|


             chalk it down
e|---------------------------------|
B|---------------------------------|
G|-----9---------------------------|
D|---------------------------------|
A|---------------------------------|
E|-----9---------------------------|


            To my head down, down
e|---------------------------------|
B|---------------------------------|
G|-----6--------------8-----8-----8|
D|---------------------------------|
A|---------------------------------|
E|-----5-----------------7-----7---|


{Chorus 2}

             And I miss the way the sun streamed through my window
e|----------------------------------------------------------------------------------|
B|----------------------------------------------------------------------------------|
G|------8-----8------9-----9-----9-----8-----8------8-----8-----4-----4-----4-----6-|
D|----------------------------------------------------------------------------------|
A|----------------------------------------------------------------------------------|
E|---7-----7------9-----9-----9-----7-----7------7-----7-----4-----4-----4-----5----|


             And I miss the way you almost held the tide (down, down, down)
e|----------------------------------------------------------------------------|
B|----------------------------------------------------------------------------|
G|------6-----6------1-----1-----1-----1-----1------4-----4-----4-----4-----4-|
D|----------------------------------------------------------------------------|
A|----------------------------------------------------------------------------|
E|---5-----5------0-----0-----0-----0-----0------4-----4-----4-----4-----4----|


    But still it's nice         dreaming of you somewhere
e|----------------------------------------------------------------------------|
B|----------------------------------------------------------------------------|
G|------4-----4------9-----9-----9-----9-----9------8-----8-----8-----8-----4-|
D|----------------------------------------------------------------------------|
A|----------------------------------------------------------------------------|
E|---4-----4------9-----9-----9-----9-----9------7-----7-----7-----7-----4----|


              Feeling the same heat that I did
e|------------------------------------------------------------------------|
B|------------------------------------------------------------------------|
G|--------4-----4-----4-----6-----6-----6-----1------1-----1-----1-----1--|
D|------------------------------------------------------------------------|
A|------------------------------------------------------------------------|
G|------4-----4-----4-----5-----5-----5-----0-----0-----0-----0-----0-----|


          No fear no fall  (I know, I know, I know)
e|------------------------------------------------|
B|------------------------------------------------|
G|--------1-----1-----4-----4-----4-----4-----4---|
D|------------------------------------------------|
A|------------------------------------------------|
G|------0-----0-----4-----4-----4-----4-----4-----|


        If invisible lines lead your way back to me
e|------------------------------------------------------------------------|
B|------------------------------------------------------------------------|
G|--------4-----4-----4-----6-----6-----6-----6------6-----6-----6-----6--|
D|------------------------------------------------------------------------|
A|------------------------------------------------------------------------|
G|------4-----4-----4-----5-----5-----5-----5-----5-----5-----5-----5-----|


         Still I got nothing, woah
e|------------------------------------------------------------------------|
B|------------------------------------------------------------------------|
G|--------6-----6-----1-----1-----1-----1-----1------1-----1-----1-----1--|
D|------------------------------------------------------------------------|
A|------------------------------------------------------------------------|
G|------5-----5-----0-----0-----0-----0-----0-----0-----0-----0-----0-----|

{Outro}

                                                      Comme les
e|------------------------------------------------------------------------|
B|------------------------------------------------------------------------|
G|--------8-----8-----8-----8---------8----------8-----------8------------|
D|------------------------------------------------------------------------|
A|------------------------------------------------------------------------|
G|------7-----7-----7-----7------7--------7-----------7-------------------|


            nuits quand je ne savais pas enore
e|-----------------------------------------------------------------------|
B|-----------------------------------------------------------------------|
G|--------6----6----6----6----6----8----8----9----9----9----9----9----9--|
D|-----------------------------------------------------------------------|
A|-----------------------------------------------------------------------|
G|------5----5----5----5----5----7----7----9----9----9----9----9----9----|


        Comme les nuits qui m'ont appris à aimer les           adieux
e|---------------------------------------------------------------------------|
B|---------------------------------------------------------------------------|
G|--------9----8----6----6----6----6----6----6----6----6----1----1----1----1-|
D|---------------------------------------------------------------------------|
A|---------------------------------------------------------------------------|
G|------9----7----5----5----5----5----5----5----5----5----0----0----0----0---|


              Comme les nuits quand on croyais que tout irais bien
e|-------------------------------------------------------------------|
B|-------------------------------------------------------------------|
G|----1----1----1----1----6----6----6----6----6----8----8----9----9--|
D|-------------------------------------------------------------------|
A|-------------------------------------------------------------------|
G|--0----0----0----0----5----5----5----5----5----7----7----9----9----|


            Mais cela         n'a pas                   d'importance car les nuits
e|---------------------------------------------------------------------------------|
B|---------------------------------------------------------------------------------|
G|--------8----8----2----2----4----4----6----6----6----6----6----6----6----6----1--|
D|---------------------------------------------------------------------------------|
A|---------------------------------------------------------------------------------|
G|------7----7----2----2----4----4----5----5----5----5----5----5----5----5----0----|


                        Bruyantes/brillantes Bruyantes/brillantes Bruyantes/brillantes
e|------------------------------------------------------------------------------------|
B|------------------------------------------------------------------------------------|
G|----1----1----1----1----1----1----1----4----4----4----4----4----4----4----4----6----|
D|------------------------------------------------------------------------------------|
A|------------------------------------------------------------------------------------|
G|--0----0----0----0----0----0----0----4----4----4----4----4----4----4----4----5------|


                       Sont toutes pareilles à la fin
e|-----------------------------------------------------------------------|
B|-----------------------------------------------------------------------|
G|--------6----6----6----6----6----8----8----8----8----8-----------------|
D|-----------------------------------------------------------------------|
A|-----------------------------------------------------------------------|
G|------5----5----5----5----5----7----7----7----7----7-------------------|



************************************

| h  Hammer-on

************************************

Almost there ...

Sign in to get your own page with links to favourite songs and more. You are just one click away...

Login with Facebook Login with Google