Log in

One click and you are in

Login with Facebook Login with Google

Why sign up and log in

Guitar Tabs Explorer
Duane Eddy bass tabs for Three 30 blues

Bass tabs

duane_eddy-three_30_blues.btab

Basstab by Jan Bjorklund, Finland;
jani_bjorklund@yahoo.se
You are welcome to request for basstabs!
Bienvenidos a pedirme transcripciones para el bajo!
Fingering and positions as suggested by TablEdit.

TablEdited by Jan Bjorklund

Tuning : E A D G 	Time Signature: 4/4

 |    |    |    |    |    |    |    |
|--------------------------------|--------------------------------|
|0---0---------------------------|--------------------------------|
|--------3---3---2---2---0---0---|3---3---1---1---0---0-----------|
|--------------------------------|------------------------3---3---|

 |    |    |    |    |    |    |    |
|--------------------------------|--------------------------------|
|--------------------------------|------------------------0-------|
|3-------------------------------|--------------------------------|
|--------------------------------|--------------------------------|

 |    |    |    |    |    |    |    |
|0---0---------------------------|--------------------------------|
|--------3---3---2---2---0---0---|--------------------------------|
|--------------------------------|3---3---1---1---0---0-----------|
|--------------------------------|------------------------3---3---|

 |    |    |    |    |    |    |    |
|0---0---------------------------|0---0-----------------------0---|
|--------3---3---2---2---0---0---|------------------------0-------|
|--------------------------------|--------2---2---3---3-----------|
|--------------------------------|--------------------------------|

 |    |    |    |    |    |    |    |
|--------------------------------|--------------------------------|
|--------------------------------|--------------------------------|
|3---3---1---1---0---0-----------|3---3-----------------------3---|
|------------------------3---3---|--------0---0---1---1---3-------|

 |    |    |    |    |    |    |    |
|0---0---------------------------|--------4---4---5---5---7---7---|
|--------3---3---2---2---0---0---|5---5---------------------------|
|--------------------------------|--------------------------------|
|--------------------------------|--------------------------------|

 |    |    |    |    |    |    |    |
|--------------------------------|--------------------------------|
|0---0---------------------------|--------2---2---3---3---4---4---|
|--------3---3---2---2---0---0---|3---3---------------------3-----|
|--------------------------------|--------------------------------|

 |    |    |    |    |    |    |    |
|--------------------------------|------------------------1---1---|
|----------------0---0---2---0---|--------0-------0---0-----------|
|--------2---2-------------------|--------------------------------|
|3---3---------------------------|3-------------------------------|

 |    |    |    |    |    |    |    |
|0---0---------------------------|--------------------------------|
|--------3---3---2---2---0---0---|--------2---2---3---3---4---4---|
|--------------------------------|3---3---------------------3-----|
|--------------------------------|--------------------------------|

 |    |    |    |    |    |    |    |
|0---0---0---0---0---0---0---0---|0---0---------------------------|
|--------------------------------|--------3---3---2---2---0---0---|
|--------------------------------|--------------------------------|
|--------------------------------|--------------------------------|

 |    |    |    |    |    |    |    |
|--------------------------------|--------------------------------|
|--------------------------------|--------------------------------|
|3---3---1---1---0---0-----------|3---3-----------------------3---|
|------------------------3---3---|--------0---0---1---1---3-------|

 |    |    |    |    |    |    |    |
|0---0---------------------------|--------4---4---5---5---7---7---|
|--------3---3---2---2---0---0---|5---5---------------------------|
|--------------------------------|--------------------------------|
|--------------------------------|--------------------------------|

 |    |    |    |    |    |    |    |
|--------------------------------|--------------------------------|
|0---0---------------------0-----|--------2---2---3---3---4---4---|
|------------------------0---4---|3---3---------------------------|
|--------2---2---3---3-----------|--------------------------------|

 |    |    |    |    |    |    |    |
|0---0---------------------------|------------------------1---1---|
|--------3---3---2---2---0---0---|--------0-------0---0-----------|
|--------------------------------|--------------------------------|
|--------------------------------|3-------------------------------|

 |    |    |    |    |    |    |    |
|0---0---------------------------|--------------------------------|
|--------3---3---2---2---0---0---|--------2---2---3---3---4---4---|
|--------------------------------|3---3---------------------3-----|
|--------------------------------|--------------------------------|

 |    |    |    |    |    |    |    |
|0---0---------------------------|--------4---4---5---5---7---7---|
|--------3---3---2---2---0---0---|5---5---------------------------|
|--------------------------------|--------------------------------|
|--------------------------------|--------------------------------|

 |    |    |    |    |    |    |    |
|--------------------------------|------------------------0---0---|
|--------------------------------|--------2---2---3---3-----------|
|3---3---1---1---0---0-----------|3---3---------------------------|
|------------------------3---3---|--------------------------------|

 |    |    |    |    |    |    |    |
|0---0---------------------------|--------4---4---5---5---7---7---|
|--------3---3---2---2---0---0---|5---5---------------------------|
|--------------------------------|--------------------------------|
|--------------------------------|--------------------------------|

 |    |    |    |    |    |    |    |
|--------------------------------|--------------------------------|
|0---0---------------------0-----|--------2---2---3---3---4---4---|
|------------------------0---4---|3---3---------------------3-----|
|--------2---2---3---3-----------|--------------------------------|

 |    |    |    |    |    |    |    |
|--------------------------------|--------------------------------|
|----------------0---0---2---0---|0---0---------------------------|
|--------2---2-------------------|--------3---3---2---2---0---0---|
|3---3---------------------------|--------------------------------|

 |    |    |    |    |    |    |    |
|--------------------------------|--------------------------------|
|--------------------------------|--------------------------------|
|--------------------------------|3-------------------------------|
|3-------------------------------|--------------------------------|

 |    |    |    |    |    |    |    |
|--------------------------------|--------------------------------|
|--------------------------------|----------------0---0---2---0---|
|--------------------------------|--------2---2-------------------|
|3-------------------------------|3---3---------------------------|

 |    |    |    |    |    |    |    |
|--------------------------------|------------------------0---0---|
|--------------------------------|--------2---2---3---3-----------|
|3---3---1---1---0---0-----------|3---3---------------------------|
|------------------------3---3---|--------------------------------|

 |    |    |    |    |    |    |    |
|--------4---4---5---5---7---7---|0---0---------------------------|
|5---5---------------------------|--------3---3---2---2---1---1---|
|--------------------------------|--------------------------------|
|--------------------------------|--------------------------------|

 |    |    |    |    |    |    |    |
|--------------------------------|--------------------------------|
|0---0---------------------0-----|--------2---2---3---3---4---4---|
|------------------------0---4---|3---3---------------------3-----|
|--------2---2---3---3-----------|--------------------------------|

 |    |    |    |    |    |    |    |
|--------------------------------|--------------------------------|
|----------------0---0---2---0---|0---0---2---2---3---3---4---4---|
|--------2---2-------------------|--------------------------------|
|3---3---------------------------|--------------------------------|

 |    |    |    |    |    |    |    |
|0-------------------------------|--------------------------------|
|--------------------------------|--------------------------------|
|--------------------------------|3-------------------------------|
|--------------------------------|--------------------------------|

 |    |    |    |    |    |    |    |
|--------------------------------|0---0---------------------------|
|--------------------------------|------------------------0-------|
|--------------------------------|--------2---2---3---3-------4---|
|3-------------------------------|--------------------------------|

 |    |    |    |    |    |    |    |
|--------------------------------|------------------------0---0---|
|--------------------------------|--------2---2---3---3-----------|
|3---3---1---1---0---0-----------|3---3---------------------------|
|------------------------3---3---|--------------------------------|

 |    |    |    |    |    |    |    |
|0---0---------------------------|--------4---4---5---5---7---7---|
|--------3---3---2---2---0---0---|5---5---------------------------|
|--------------------------------|--------------------------------|
|--------------------------------|--------------------------------|

 |    |    |    |    |    |    |    |
|--------------------------------|--------------------------------|
|0---0---------------------0-----|--------2---2---3---3---4---4---|
|------------------------0---4---|3---3---------------------------|
|--------2---2---3---3-----------|--------------------------------|

 |    |    |    |    |    |    |    |
|0-------------------------------|--------------------------------|
|--------------------------------|--------------------------------|
|--------------------------------|--------------------------------|
|--------------------------------|3-------4---3-------------------|

ⓘ Bass guitar tab for 'Three 30 Blues' by Duane Eddy, a male artist. Duane Eddy was born in 1938.

Almost there ...

Sign in to get your own page with links to favourite songs and more. You are just one click away...

Login with Facebook Login with Google