Log in

One click and you are in

Login with Facebook Login with Google

Why sign up and log in

Guitar Tabs Explorer
Econoline Crush tabs for Surefire

Tabs

Album: The Devil You Know
As tabbed by Joe Muggah

Dropped D, then tuned down a step.
EADGBe is now CGCFAd
Riff
d-----------------------------------------------------
A-----------------------------------------------------
F------2-2-2--5-2-2-------2-2-2--5-2-2----------------
C-0----3-3-3--6-3-3--0----3-3-3--6-3-3----------------
G-0----3-3-3--6-3-3--0----3-3-3--6-3-3----------------
C-0----3-3-3--6-3-3--0----3-3-3--6-3-3----------------


Verse 1 (let ring)         Verse 2
d------------------------|----------------------------
A------------------------|----------------------------
F------------------------|----14----------------------
C-0-----0-----0-----0----|-0--14-(x8)-----------------
G-0-----0-----0-----0----|-0--12----------------------
C-0-----0-----0-----0----|-0--------------------------


Chorus (all hit 8 times)
d-----------------------------------------------------
A-----------------------------------------------------
F-7--10----------7--10--------------------------------
C-7--10--10--8---7--10--10--8-------------------------
G-5---8--10--8---5---8--10--8-------------------------
C--------10--8----------10--8-------------------------
("Never enough now...")

Fill
d-----------------------------------------------------
A-----------------------------------------------------
F--------------/10\-----------------------------------
C--0-0-0-3-0-0-/10\-----------------------------------
G--0-0-0-3-0-0-/-8\-----------------------------------
C--0-0-0-3-0-0----------------------------------------
Bridge
d-----------------------------------------------------
A-----------------------------------------------------
F-----------------------------------------------------
C-0-0-3-0-0-0-6-0-3-0-3-0-3-0-6-----------------------
G-0-0-3-0-0-0-6-0-3-0-3-0-3-0-6-----------------------
C-0-0-3-0-0-0-6-0-3-0-3-0-3-0-6-----------------------


Solo A chord diagramA augmentedA (Guitar 1, repeated a lot)
d-----------------------------------------------------
A-5/7---10--\5---3---5/7---10-------------------------
F-----------------------------------------------------
C-----------------------------------------------------
G-----------------------------------------------------
C-----------------------------------------------------


Solo A chord diagramBB (Guitar 2)
d-----------------------------------------------------
A-----------------------------------------------------
F-----------------------------------------------------
C----------------------------------------7-5-7-10-----
G-0-3-5---8-7------0-3-5---8-7-----0-3-0--------------
C-------------10---------------10---------------------


d-----------------------------------------------------
A-9-10---10---9---------------------------------------
F-(x25)----------10---7-10-7---5---7---5---7-5--------
C------------------------------------------(x6)-------
G-----------------------------------------------------
C-----------------------------------------------------


Outro
d-----------------------------------------------------
A-----------------------------------------------------
F-----------------------------------------------------
C-----10----------------------------------------------
G-12------10--8---------------------------------------
C-----------------------------------------------------


Riff

Verse 1

Chorus

Riff

Verse 1

Verse 2

Chorus

Riff
Fill

Bridge

Chorus, Solo A, A chord diagramBB

Chorus, Outro
ⓘ Guitar tab for 'Surefire' by Econoline Crush, an alternative rock band formed in 1992 from Vancouver, British Columbia, Canada

Almost there ...

Sign in to get your own page with links to favourite songs and more. You are just one click away...

Login with Facebook Login with Google