Log in

One click and you are in

Login with Facebook Login with Google

Why sign up and log in

Guitar Tabs Explorer
Econoline Crush tabs for Sparkle and shine

Guitar tabs

Album: The Devil You Know
As tabbed by Joe Muggah

Dropped A chord diagramD MajorD
Verse A chord diagramA augmentedA (Guitar 1)
e-----------------------------------------------------
B-----------------------------------------------------
G-----------------------------------------------------
D-1-1-1-8-8-6--4-0-4-0-4-6-4-0------------------------
A-1-1-1-8-8-6--4-0-4-0-4-6-4-0------------------------
D-1-1-1-8-8-6--4-0-4-0-4-6-4-0------------------------
("Sometimes I feel...")


Pre-Chorus
e-----------------------------------------------------
B-----------------------------------------------------
G-8p6-8p6-8p6-8p6---10p8-10p8-10p8-10p8---------------
D-----------------------------------------------------
A-----------------------------------------------------
D-----------------------------------------------------
("You don't know me...")

(continued)
e-----------------------------------------------------
B-----------------------------------------------------
G-----------------------------------------------------
D-8p6-8p6-8p6-8p6---11p8-11p8-11p8-11p8---------------
A-----------------------------------------------------
D-----------------------------------------------------


Chorus
e-----------------------------------------------------
B-----------------------------------------------------
G-8-8-7-6--4-6-7--8-8---------------------------------
D-8-8-7-6--4-6-7--8-8-8-6--4h6-4----------------------
A-6-6-5-4--2-4-5--6-6-8-6--4h6-4----------------------
D---------------------8-6--4h6-4----------------------
("Sparkle and Shine...")

Verse A chord diagramBB (Guitar 2)
e----6--9--6-------6--9-------6--9--6-------6--9------
B-7-------------7----------7-------------7------------
G-----------------------------------------------------
D-----------------------------------------------------
A-----------------------------------------------------
D-----------------------------------------------------

Post-Chorus A chord diagramA augmentedA (Guitar 1)
e-----------------------------------------------------
B-----------------------------------------------------
G-----------------------------------------------------
D-1-1-1-8-6-9-9-9-9-9-6-6-6--1-1-1-8-6-9-9-9-9-9-11-11
A-1-1-1-8-6-9-9-9-9-9-6-6-6--1-1-1-8-6-9-9-9-9-9-11-11
D-1-1-1-8-6-9-9-9-9-9-6-6-6--1-1-1-8-6-9-9-9-9-9-11-11

Post-Chorus A chord diagramBB (Guitar 2)
e-6p0--9p0--11-13-11-9-11---------13-11--------11-----
B---------------------------11-14-------11--14--------
G-----------------------------------------------------
D-----------------------------------------------------
A-----------------------------------------------------
D-----------------------------------------------------


Solo
e-----------------------------------------------9-----
B-6--/4--6--7--6--7--6-7--7/9-7-6-7--7/9-11-9---------
G-----------------------------------------------------
D-----------------------------------------------------
A-----------------------------------------------------
D-----------------------------------------------------

(continued)
e-9h11-13-11--13h14-13h14-13h14-13h14-13--14-13-11-13\
B-----------------------------------------------------
G-----------------------------------------------------
D-----------------------------------------------------
A-----------------------------------------------------
D-----------------------------------------------------

(continued)
e-------------9p6--9p6--9-11-9-13^--------------------
B-9h11--9h11------------------------------------------
G-----------------------------------------------------
D-----------------------------------------------------
A-----------------------------------------------------
D-----------------------------------------------------


Outro
e-----------------------------------------------------
B-----------------------------------------------------
G-----------------------------------------------------
D--1--------------------------------------------------
A--1--(let ring)--------------------------------------
D--1--------------------------------------------------


Verse A chord diagramA augmentedA

Pre-Chorus

Chorus

Verse A, A chord diagramBB

Verse A chord diagramA augmentedA

Pre-Chorus

Chorus
Post-Chorus A, A chord diagramBB

Solo

Chorus

Outro

Another good tune. It was popular at the time.

Almost there ...

Sign in to get your own page with links to favourite songs and more. You are just one click away...

Login with Facebook Login with Google