Log in

One click and you are in

Login with Facebook Login with Google

Why sign up and log in

Guitar Tabs Explorer
Econoline Crush tabs for Make it right

Guitar tabs

Album: Brand New History
As tabbed by Joe Muggah


Chorus A chord diagramA augmentedA (Guitar 1)
e--------------------------------------------------------
B--------------------------------------------------------
G-----4-7-4-4---9-9-4-7-4-4-------4-7-4-4---9-9-4-7-4-4--
D-2-2-4-7-4-4---9-9-4-7-4-4---2-2-4-7-4-4---9-9-4-7-4-4--
A-2-2-2-5-2-2---7-7-2-5-2-2---2-2-2-5-2-2---7-7-2-5-2-2--
E-0-0-------------------------0-0------------------------
Verse
e--------------------------------------------------------
B--------------------------------------------------------
G------0--------0----------0-------0---------------------
D--------------------------------------------------------
A---2--------2----------2--------2-----------------------
E-0--------0----------0--------0-------------------------
("Broken all the little strings...")


Pre-Chorus
e--------------------------------------------------------
B--------------------------------------------------------
G--------------------------------------------------------
D-5-7--5-7--5-7--5-7--8-8---5-7--5-7--5-7--5-7--8-8------
A-5-7--5-7--5-7--5-7--8-8---5-7--5-7--5-7--5-7--8-8------
E-3-5--3-5--3-5--3-5--6-6---3-5--3-5--3-5--3-5--6-6------
("Ooo...I know you'll be...")


Chorus A chord diagramBB (Guitar 2)
e-7-9-12\10-------7-9-12\10------------------------------
B--------------------------------------------------------
G--------------------------------------------------------
D--------------------------------------------------------
A--------------------------------------------------------
E--------------------------------------------------------

Solo A chord diagramA augmentedA (Guitar 1)
e--------------------------------------------------------
B--------------------------------------------------------
G-5-7--5-7--5-7--5-7--5-7--------------------------------
D-5-7--5-7--5-7--5-7--5-7--3-5--3-5--5-7--5-7--5-7-------
A-3-5--3-5--3-5--3-5--3-5--3-5--3-5--5-7--5-7--5-7-------
E--------------------------1-3--1-3--3-5--3-5--3-5-------


Solo A chord diagramBB (Guitar 2)
e--------------------------------------------------------
B-3-5-5--3-5-5--3-5-5--3h5p3p0---------------------------
G------------------------------4p2p0--2-4-4--2-4-4--4p2p0
D--------------------------------------------------------
A--------------------------------------------------------
E--------------------------------------------------------

(continued)
e--------------------------------------------------------
B----------------------12-12-----12-12-----12-14-12-15p12
G--------2h4-2---------12-12p10--12-12p10--12-12-12-12---
D-4p2p0--------h4-0-2------------------------------------
A--------------------------------------------------------
E--------------------------------------------------------

(continued)
e--------------------------------------------------------
B-12-14-12--12-12-12^\-----------------------------------
G-12--------12-12----------------------------------------
D--------------------------------------------------------
A--------------------------------------------------------
E--------------------------------------------------------


Chorus A chord diagramA augmentedA

Verse

Pre-Chorus

Chorus A, A chord diagramBB

Solo A chord diagramA augmentedA

Solo A, A chord diagramBB

Pre-Chorus

Chorus A, A chord diagramBB

I tabbed this off a video tape, and the solo was extremely
hard to tab so it might have some errors.

Almost there ...

Sign in to get your own page with links to favourite songs and more. You are just one click away...

Login with Facebook Login with Google