Log in

One click and you are in

Login with Facebook Login with Google

Why sign up and log in

Guitar Tabs Explorer
Econoline Crush chords for Home

Guitar chords

Album: The Devil You Know
As tabbed by Joe Muggah

Dropped A chord diagramD MajorD
m = palm mute
Riff
e------------------------------------------------------
B------------------------------------------------------
G------------------------------------------------------
D-0-0-6-0-0-6-0-0-3-0-0-3-0-0-3------------------------
A-0-0-6-0-0-6-0-0-3-0-0-3-0-0-3------------------------
D-0-0-6-0-0-6-0-0-3-0-0-3-0-0-3------------------------


Pre-Chorus
e------------------------------------------------------
B------------------------------------------------------
G------------------------------------------------------
D-0m-0m-5h6-0m-0m-5h6-0m-0m-3-0m-3h5-3-----------------
A-0m-0m-5h6-0m-0m-5h6-0m-0m-3-0m-3h5-3-----------------
D-0m-0m-5h6-0m-0m-5h6-0m-0m-3-0m-3h5-3-----------------
("I could love you...")


Chorus
e------------------------------------------------------
B------------------------------------------------------
G------------------------------------------------------
D-8---5---0------8---10---0------8---5--0m-------8--10-
A-8---5---0------8---10---0------8---5--0m-(x9)--8--10-
D-8---5---0------8---10---0------8---5--0m-------8--10-
("She says....")

Bridge
e------------------------------------------------------
B------------------------------------------------------
G------------------------------------------------------
D-----------------------h10h12------------0m-0m-0m-----
A-----------------------------------------0m-0m-0m-----
D-0-h10h12--0-h10h12--0---------0-h10h12--0m-0m-0m-----

Fill
e------------------------------------------------------
B------------------------------------------------------
G------------------------------------------------------
D-0--------8-10----------------------------------------
A-0-(x16)--8-10----------------------------------------
D-0--------8-10----------------------------------------


Riff

Pre-Chorus

Chorus

Riff

Pre-Chorus

Chorus

Riff

Bridge

Pre-Chorus
Fill

Riff

Surprisingly, this is the first and only Econoline
Crush song in the archive. I have some work to do.
ⓘ Guitar chords for 'Home' by Econoline Crush, an alternative rock band formed in 1992 from Vancouver, British Columbia, Canada

Almost there ...

Sign in to get your own page with links to favourite songs and more. You are just one click away...

Login with Facebook Login with Google