Log in

One click and you are in

Login with Facebook Login with Google

Why sign up and log in

Guitar Tabs Explorer
Econoline Crush tabs for Hollowman

Guitar tabs

Album: The Devil You Know
As tabbed by Joe Muggah

Dropped A chord diagramD MajorD tuning

Verse                        end on
e---------------------------|--------------------------------
B---------------------------|--------------------------------
G----12v----------12v-------|--12/14---12/14---12/14^--------
D--0------------0-----------|---x-------x-------x------------
A---------------------------|--10/12---10/12---10/12^--------
D---------------------------|--------------------------------


Pre-Chorus
e------------------------------------------------------------
B------------------------------------------------------------
G------------------------------------------------------------
D--0------------3---------5-6-5-6-5-3------------------------
A--0------------3---------5-6-5-6-5-3------------------------
D--0--0m-0m-0m--3--0m-0m--5-6-5-6-5-3------------------------
("Oh is there no way out ")


Chorus
e------------------------------------------------------------
B------------------------------------------------------------
G------------------------------------------------------------
D------------------------3-3-0--5-6-6------------------------
A---------5----6----5v---3-3-0--5-6-6------------------------
D--0m-0m----0m---0m------3-3-0--5-6-6------------------------


Verse

Pre-Chorus

Chorus

Verse

Pre-Chorus

Chorus


Pre-Chorus

Chorus

Almost there ...

Sign in to get your own page with links to favourite songs and more. You are just one click away...

Login with Facebook Login with Google