Log in

One click and you are in

Login with Facebook Login with Google

Why sign up and log in

Guitar Tabs Explorer
Echosmith bass tabs for Stuck

Bass tabs

Tuning: Drop D (D A D G)



Intro: (0:02-0:18)

G|--------------------------------|---------------------------------| ***
D|----------------10/12----8h10\--|-----------------8/10----8-------|  *
A|10----10----10------------------|6------6-----6-------------------|  *
D|--------------------------------|---------------------------------|  *
 1 e & a 2 e & a 3 e & a 4 e & a 1 e & a 2 e & a 3 e & a 4 e & a    * (x2)
                                     *
G|--------------------------------|---------------------------------|  *
D|----------------10/12----8h10---|-----------------10/1210--8------|  *
A|8-----8-----8-------------------|8-----8-----8----------------5---|  *
D|--------------------------------|---------------------------------| ***
 1 e & a 2 e & a 3 e & a 4 e & a 1 e & a 2 e & a 3 e & a 4 e & a



Verse 1: (0:18-0:34)

G|----------------|-----------------|-----------------|----------------|
D|----------------|-----------------|-----------------|----------------| x2
A|----------------|-----------------|-----------------|----------------|
D|5-----5-5-----5/|13----1313----13\|3------3-3-----3-|3-----3-3-0-3---|
 1 & 2 & 3 & 4 & 1 & 2 & 3 & 4 &  1 & 2 & 3 & 4 & 1 & 2 & 3 & 4 &



Pre-Chorus: (0:34-0:50)

G|----------------|-----------------|-----------------|----------------|
D|----------------|-----------------|-----------------|----------------|
A|----------------|-----------------|-----------------|----------------|
D|5-----5-5-----5/|13----1313----13\|3------3-3-----3-|3-----3-3-0-3---|
 1 & 2 & 3 & 4 & 1 & 2 & 3 & 4 &  1 & 2 & 3 & 4 & 1 & 2 & 3 & 4 &

G|----------------|-----------------|-----------------|----------------|
D|----------------|-----------------|-----------------|----------------|
A|----------------|-----------------|-----------------|----------------|
D|5-----5-5-----5/|13----1313----13\|3------3-3-----3-|3---------------|
 1 & 2 & 3 & 4 & 1 & 2 & 3 & 4 &  1 & 2 & 3 & 4 & 1 & 2 & 3 & 4 &



Chorus: (0:50-1:22)

G|--------------------------------|---------------------------------| ***
D|----------------10/12----8h10\--|-----------------8/10----8-------|  *
A|10----10----10------------------|6------6-----6-------------------|  *
D|--------------------------------|---------------------------------|  *
 1 e & a 2 e & a 3 e & a 4 e & a 1 e & a 2 e & a 3 e & a 4 e & a    * (x4)
                                     *
G|--------------------------------|---------------------------------|  *
D|----------------10/12----8h10---|-----------------10/1210--8------|  *
A|8-----8-----8-------------------|8-----8-----8----------------5---|  *
D|--------------------------------|---------------------------------| ***
 1 e & a 2 e & a 3 e & a 4 e & a 1 e & a 2 e & a 3 e & a 4 e & a



Verse 2: (1:22-1:38)

G|----------------|-----------------|-----------------|----------------|
D|----------------|-----------------|-----------------|----------------| x2
A|----------------|-----------------|-----------------|----------------|
D|5-----5-5-----5/|13----1313----13\|3------3-3-----3-|3-----3-3-0-3---|
 1 & 2 & 3 & 4 & 1 & 2 & 3 & 4 &  1 & 2 & 3 & 4 & 1 & 2 & 3 & 4 &



Pre-Chorus: (1:38-1:54)

G|----------------|-----------------|-----------------|----------------|
D|----------------|-----------------|-----------------|----------------|
A|----------------|-----------------|-----------------|----------------|
D|5-----5-5-----5/|13----1313----13\|3------3-3-----3-|3-----3-3-0-3---|
 1 & 2 & 3 & 4 & 1 & 2 & 3 & 4 &  1 & 2 & 3 & 4 & 1 & 2 & 3 & 4 &

G|----------------|-----------------|-----------------|----------------|
D|----------------|-----------------|-----------------|----------------|
A|----------------|-----------------|-----------------|----------------|
D|5-----5-5-----5/|13----1313----13\|3------3-3-----3-|3---------------|
 1 & 2 & 3 & 4 & 1 & 2 & 3 & 4 &  1 & 2 & 3 & 4 & 1 & 2 & 3 & 4 &



Chorus: (1:54-2:26)

G|--------------------------------|---------------------------------| ***
D|----------------10/12----8h10\--|-----------------8/10----8-------|  *
A|10----10----10------------------|6------6-----6-------------------|  *
D|--------------------------------|---------------------------------|  *
 1 e & a 2 e & a 3 e & a 4 e & a 1 e & a 2 e & a 3 e & a 4 e & a    * (x4)
                                     *
G|--------------------------------|---------------------------------|  *
D|----------------10/12----8h10---|-----------------10/1210--8------|  *
A|8-----8-----8-------------------|8-----8-----8----------------5---|  *
D|--------------------------------|---------------------------------| ***
 1 e & a 2 e & a 3 e & a 4 e & a 1 e & a 2 e & a 3 e & a 4 e & a



Bridge: (2:26-2:50)

G|----------------|----------------|----------------|----------------|
D|----------------|----------------|----------------|----------------| x2
A|----------------|----------------|----------------|----------------|
D|5---------------|3/--------------|10--------------|13--------------|
 1 & 2 & 3 & 4 & 1 & 2 & 3 & 4 & 1 & 2 & 3 & 4 & 1 & 2 & 3 & 4 &

G|----------------|----------------|----------------|----------------|
D|----------------|----------------|----------------|----------------|
A|----------------|----------------|----------------|----------------|
D|----------------|----------------|----------------|----------------|
 1 & 2 & 3 & 4 & 1 & 2 & 3 & 4 & 1 & 2 & 3 & 4 & 1 & 2 & 3 & 4 &



Chorus: (2:50-3:22)

G|--------------------------------|---------------------------------| ***
D|----------------10/12----8h10\--|-----------------8/10----8-------|  *
A|10----10----10------------------|6------6-----6-------------------|  *
D|--------------------------------|---------------------------------|  *
 1 e & a 2 e & a 3 e & a 4 e & a 1 e & a 2 e & a 3 e & a 4 e & a    * (x3)
                                     *
G|--------------------------------|---------------------------------|  *
D|----------------10/12----8h10---|-----------------10/1210--8------|  *
A|8-----8-----8-------------------|8-----8-----8----------------5---|  *
D|--------------------------------|---------------------------------| ***
 1 e & a 2 e & a 3 e & a 4 e & a 1 e & a 2 e & a 3 e & a 4 e & a

G|--------------------------------|---------------------------------|
D|--------------------------------|---------------------------------|
A|10------------------------------|---------------------------------|
D|--------------------------------|---------------------------------|
 1 e & a 2 e & a 3 e & a 4 e & a 1 e & a 2 e & a 3 e & a 4 e & a


************************************

| h  Hammer-on
| p  Pull-off
| /  Slide up
| \  Slide down

************************************

Almost there ...

Sign in to get your own page with links to favourite songs and more. You are just one click away...

Login with Facebook Login with Google