Log in

One click and you are in

Login with Facebook Login with Google

Why sign up and log in

Guitar Tabs Explorer
Echosmith bass tabs for Shut up and kiss me

Bass tabs

Tuning: Standard (E A D G)


Key: B Minor
🎸 Verse 1: (0:00-0:19)

G|--------------------------------|--------------------------------|
D|--------------------------------|--------------------------------|
A|--------------------------------|------------------------------10|
E|--------------------------------|--------------------------------|
 1 e & a 2 e & a 3 e & a 4 e & a 1 e & a 2 e & a 3 e & a 4 e & a


G|--------------------------------|--------------------------------|
D|------9---9-------------------9-|----------9-----------11--11----|
A|10----------10--------------10--|10----10----10--12----------12--|
E|--------------------------------|--------------------------------|
 1 e & a 2 e & a 3 e & a 4 e & a 1 e & a 2 e & a 3 e & a 4 e & a

G|----------------14--------------|--------------------------------|
D|------12--12------------------12|----------12--------------15----|
A|14----------14--------------14--|14----14----14--17----17----17--|
E|--------------------------------|--------------------------------|
 1 e & a 2 e & a 3 e & a 4 e & a 1 e & a 2 e & a 3 e & a 4 e & a

G|----------------11--------------|--------------------------------|
D|------11--11------------------11|----------11--------------12----|
A|12----------12--------------12--|12----12----12--14----14----14--|
E|--------------------------------|--------------------------------|
 1 e & a 2 e & a 3 e & a 4 e & a 1 e & a 2 e & a 3 e & a 4 e & a

G|----------------7---------------|--------------------------------|
D|--------9-9-------------------9-|------9---9-----------7---7-----|
A|7-----------7---------------7---|7-----------7---9-----------9---|
E|--------------------------------|--------------------------------|
 1 e & a 2 e & a 3 e & a 4 e & a 1 e & a 2 e & a 3 e & a 4 e & a

🎸 Pre-Chorus: (0:19-0:34)

G|------------------12------------|--------------------------------|
D|-------9---9------------------9-|----------9-----------11--11----|
A|10-----------10-------------10--|10----10----10--12----------12--|
E|--------------------------------|--------------------------------|
 1 e & a 2 e & a 3 e & a 4 e & a 1 e & a 2 e & a 3 e & a 4 e & a

G|----------------7---------------|--------------------------------|
D|----------9-------------------9-|------9---9------------11--11---|
A|7-------7---7---------------7---|7-----------7---12-----------12-|
E|--------------------------------|--------------------------------|
 1 e & a 2 e & a 3 e & a 4 e & a 1 e & a 2 e & a 3 e & a 4 e & a

G|----------------14--------------|--------------------------------|
D|-------12--12-----------------12|----------12--------------15----|
A|14-----------14-------------14--|14----14----14--17----17----17--|
E|--------------------------------|--------------------------------|
 1 e & a 2 e & a 3 e & a 4 e & a 1 e & a 2 e & a 3 e & a 4 e & a

G|--------------------------------|--------------------------------|
D|------11--11----11------------11|--------------------------------|
A|12----------12--------------12--|12\-----------------------------|
E|--------------------------------|--------------------------------|
 1 e & a 2 e & a 3 e & a 4 e & a 1 e & a 2 e & a 3 e & a 4 e & a


🎸 Chorus: (0:34-1:08)

G|----------------|-----------------|----------------|-----------------|
D|----------------|-----------------|----------------|------------0----|
A|----------------|-----------------|----------------|--------2--------|
E|--3--3--3-------|--3--3--3-----3h5|--0--0--0-------|--0--0-----------|
 1 & 2 & 3 & 4 & 1 & 2 & 3 & 4 &  1 & 2 & 3 & 4 & 1 & 2 & 3 & 4 &

G|----------------|-----------------|----------------|-----------------|
D|----------------|-----------------|----------------|-----------------|
A|--2--2--2-------|--2--2--2-----2h4|----------------|-----------------|
E|----------------|-----------------|--5--5--5-------|--5--5/--10\--5--|
 1 & 2 & 3 & 4 & 1 & 2 & 3 & 4 &  1 & 2 & 3 & 4 & 1 & 2 & 3 & 4 &

G|----------------|-----------------|----------------|-----------------|
D|----------------|-----------------|----------------|------------0----|
A|----------------|-----------------|----------------|--------2--------|
E|--3--3--3-------|--3--3--3-----3h5|--0--0--0-------|--0--0-----------|
 1 & 2 & 3 & 4 & 1 & 2 & 3 & 4 &  1 & 2 & 3 & 4 & 1 & 2 & 3 & 4 &

G|----------------|-----------------|----------------|-----------------|
D|----------------|-----------------|----------------|-----------------|
A|--2--2--2-------|--2--2--2-----2h4|----------------|-----------------|
E|----------------|-----------------|--5--5--5-------|--5--5/--10\--5--|
 1 & 2 & 3 & 4 & 1 & 2 & 3 & 4 &  1 & 2 & 3 & 4 & 1 & 2 & 3 & 4 &

G|-----------------|----------------|
D|-----------------|----------------|
A|-----------------|----------------|
E|--3--3--3-----3h5|--0--0----------|
 1 & 2 & 3 & 4 &  1 & 2 & 3 & 4 &


🎸 Verse 2: (1:08-1:24)

G|----------------|----------------|----------------|----------------|
D|----------------|----------------|----------------|----------------|
A|----------------|----------------|----------------|--------5---5---|
E|--3--3--3-------|--3--3--5-5-----|--7--7--7-------|--7--7----------|
 1 & 2 & 3 & 4 & 1 & 2 & 3 & 4 & 1 & 2 & 3 & 4 & 1 & 2 & 3 & 4 &

G|----------------|----------------|----------------|----------------|
D|----------------|----------------|----------------|----------------|
A|----------------|----------------|----------------|----------------|
E|--5--5--5-------|--5--5--7---7---|--0--0--0-------|--0--0----2---2-|
 1 & 2 & 3 & 4 & 1 & 2 & 3 & 4 & 1 & 2 & 3 & 4 & 1 & 2 & 3 & 4 &


🎸 Pre-Chorus: (1:24-1:39)

G|----------------|-----------------|----------------|-----------------|
D|----------------|-----------------|----------------|------------0----|
A|----------------|-----------------|----------------|--------2--------|
E|--3--3--3-------|--3--3--3-----3h5|--0--0--0-------|--0--0-----------|
 1 & 2 & 3 & 4 & 1 & 2 & 3 & 4 &  1 & 2 & 3 & 4 & 1 & 2 & 3 & 4 &

G|----------------|-----------------|----------------|-----------------|
D|----------------|--------0---0----|----------------|-----------------|
A|--2--2--2-------|--2--2-----------|----------------|-----------------|
E|----------------|-----------------|--5--5--5-------|5\---------------|
 1 & 2 & 3 & 4 & 1 & 2 & 3 & 4 &  1 & 2 & 3 & 4 & 1 & 2 & 3 & 4 &


🎸 Chorus: (1:39-2:13)

G|----------------|-----------------|----------------|-----------------|
D|----------------|-----------------|----------------|------------0----|
A|----------------|-----------------|----------------|--------2--------|
E|--3--3--3-------|--3--3--3-----3h5|--0--0--0-------|--0--0-----------|
 1 & 2 & 3 & 4 & 1 & 2 & 3 & 4 &  1 & 2 & 3 & 4 & 1 & 2 & 3 & 4 &

G|----------------|-----------------|----------------|-----------------|
D|----------------|-----------------|----------------|-----------------|
A|--2--2--2-------|--2--2--2-----2h4|----------------|-----------------|
E|----------------|-----------------|--5--5--5-------|--5--5/--10\--5--|
 1 & 2 & 3 & 4 & 1 & 2 & 3 & 4 &  1 & 2 & 3 & 4 & 1 & 2 & 3 & 4 &

G|----------------|-----------------|----------------|-----------------|
D|----------------|-----------------|----------------|------------0----|
A|----------------|-----------------|----------------|--------2--------|
E|--3--3--3-------|--3--3--3-----3h5|--0--0--0-------|--0--0-----------|
 1 & 2 & 3 & 4 & 1 & 2 & 3 & 4 &  1 & 2 & 3 & 4 & 1 & 2 & 3 & 4 &

G|----------------|-----------------|----------------|-----------------|
D|----------------|-----------------|----------------|-----------------|
A|--2--2--2-------|--2--2--2-----2h4|----------------|-----------------|
E|----------------|-----------------|--5--5--5-------|--5--5/--10\--5--|
 1 & 2 & 3 & 4 & 1 & 2 & 3 & 4 &  1 & 2 & 3 & 4 & 1 & 2 & 3 & 4 &

G|-----------------|----------------|
D|-----------------|----------------|
A|-----------------|----------------|
E|--3--3--3-----3h5|--0--0----------|
 1 & 2 & 3 & 4 &  1 & 2 & 3 & 4 &


🎸 Bridge: (2:13-2:28)

G|----------------|----------------|----------------|----------------|
D|----------------|----------------|----------------|----------------|
A|------------10--|----------------|------------7---|----------------|
E|3/--------------|--------3-------|0/--------------|--------5-------|
 1 & 2 & 3 & 4 & 1 & 2 & 3 & 4 & 1 & 2 & 3 & 4 & 1 & 2 & 3 & 4 &

G|----------------|----------------|----------------|----------------|
D|----------------|----------------|----------------|----------------|
A|------------14--|----------------|------------12--|----------------|
E|7/--------------|--------7-------|5/--------------|----------------|
 1 & 2 & 3 & 4 & 1 & 2 & 3 & 4 & 1 & 2 & 3 & 4 & 1 & 2 & 3 & 4 &


🎸 Chorus: (2:28-3:03)

G|----------------|-----------------|----------------|-----------------|
D|----------------|-----------------|----------------|------------0----|
A|----------------|-----------------|----------------|--------2--------|
E|--3--3--3-------|--3--3--3-----3h5|--0--0--0-------|--0--0-----------|
 1 & 2 & 3 & 4 & 1 & 2 & 3 & 4 &  1 & 2 & 3 & 4 & 1 & 2 & 3 & 4 &

G|----------------|-----------------|----------------|-----------------|
D|----------------|-----------------|----------------|-----------------|
A|--2--2--2-------|--2--2--2-----2h4|----------------|-----------------|
E|----------------|-----------------|--5--5--5-------|--5--5/--10\--5--|
 1 & 2 & 3 & 4 & 1 & 2 & 3 & 4 &  1 & 2 & 3 & 4 & 1 & 2 & 3 & 4 &

G|----------------|-----------------|----------------|-----------------|
D|----------------|-----------------|----------------|------------0----|
A|----------------|-----------------|----------------|--------2--------|
E|--3--3--3-------|--3--3--3-----3h5|--0--0--0-------|--0--0-----------|
 1 & 2 & 3 & 4 & 1 & 2 & 3 & 4 &  1 & 2 & 3 & 4 & 1 & 2 & 3 & 4 &

G|----------------|-----------------|----------------|-----------------|
D|----------------|-----------------|----------------|-----------------|
A|--2--2--2-------|--2--2--2-----2h4|----------------|-----------------|
E|----------------|-----------------|--5--5--5-------|--5--5/--10\--5--|
 1 & 2 & 3 & 4 & 1 & 2 & 3 & 4 &  1 & 2 & 3 & 4 & 1 & 2 & 3 & 4 &

G|-----------------|----------------|
D|-----------------|----------------|
A|-----------------|----------------|
E|--3--3--3-----3h5|--0--0----------|
 1 & 2 & 3 & 4 &  1 & 2 & 3 & 4 &


************************************

| h  Hammer-on
| p  Pull-off
| /  Slide up
| \  Slide down

************************************

Almost there ...

Sign in to get your own page with links to favourite songs and more. You are just one click away...

Login with Facebook Login with Google