Log in

One click and you are in

Login with Facebook Login with Google

Why sign up and log in

Guitar Tabs Explorer
Echosmith bass tabs for Roller coaster

Bass tabs

Tuning: Standard (E A D G)


Key: G Minor

🎸 Intro: (0:00-0:10)

G|----------------|----------------|----------------|----------------|
D|----------------|----------------|----------------|----------------|
A|10101010------10|6-6-6-6-------6-|8-8-8-8-------8-|8-8-8-8-------8-|
E|----------------|----------------|----------------|----------------|
 1 & 2 & 3 & 4 & 1 & 2 & 3 & 4 & 1 & 2 & 3 & 4 & 1 & 2 & 3 & 4 &
🎸 Verse 1: (0:10-0:42)

G|----------------|----------------|----------------|----------------|
D|----------------|----------------|----------------|----------------| x3
A|10101010------10|6-6-6-6-------6-|8-8-8-8-------8-|8-8-8-8-------8-|
E|----------------|----------------|----------------|----------------|
 1 & 2 & 3 & 4 & 1 & 2 & 3 & 4 & 1 & 2 & 3 & 4 & 1 & 2 & 3 & 4 &

G|----------------|----------------|----------------|----------------|
D|----------------|----------------|----------------|----------------|
A|10101010------10|6-6-6-6-------6-|8-8-8-8-------8-|8---------------|
E|----------------|----------------|----------------|----------------|
 1 & 2 & 3 & 4 & 1 & 2 & 3 & 4 & 1 & 2 & 3 & 4 & 1 & 2 & 3 & 4 &


🎸 Chorus: (0:42-1:14)

G|----------------|----------------|----------------|----------------|
D|----------------|----------------|----------------|----------------| x4
A|1010101010101010|6-6-6-6-6-6-6-6-|8-8-8-8-8-8-8-8-|8-8-8-8-8-8-8-8-|
E|----------------|----------------|----------------|----------------|
 1 & 2 & 3 & 4 & 1 & 2 & 3 & 4 & 1 & 2 & 3 & 4 & 1 & 2 & 3 & 4 &

🎸 Verse 2: (1:14-1:46)

G|----------------|----------------|----------------|----------------|
D|----------------|----------------|----------------|----------------|
A|10101010------10|6-6-6-6-------6-|8-8-8-8-------8-|8-8-8-8-------8-|
E|----------------|----------------|----------------|----------------|
 1 & 2 & 3 & 4 & 1 & 2 & 3 & 4 & 1 & 2 & 3 & 4 & 1 & 2 & 3 & 4 &

G|----------------|----------------|----------------|----------------|
D|----------------|----------------|----------------|----------------|
A|10101010------10|6-6-6-6-------6-|8-8-8-8-------8-|8-8-8-8---8-1012|
E|----------------|----------------|----------------|----------------|
 1 & 2 & 3 & 4 & 1 & 2 & 3 & 4 & 1 & 2 & 3 & 4 & 1 & 2 & 3 & 4 &

G|----------------|----------------|----------------|----------------|
D|----------------|----------------|----------------|----------------|
A|10101010------10|6-6-6-6-------6-|8-8-8-8-------8-|8-8-8-8-------8-|
E|----------------|----------------|----------------|----------------|
 1 & 2 & 3 & 4 & 1 & 2 & 3 & 4 & 1 & 2 & 3 & 4 & 1 & 2 & 3 & 4 &

G|----------------|----------------|----------------|----------------|
D|----------------|----------------|----------------|----------------|
A|10101010------10|6-6-6-6-------6-|8-8-8-8---------|8---------------|
E|----------------|----------------|--------------6-|----------------|
 1 & 2 & 3 & 4 & 1 & 2 & 3 & 4 & 1 & 2 & 3 & 4 & 1 & 2 & 3 & 4 &


🎸 Chorus: (1:46-2:18)

G|----------------|----------------|----------------|----------------|
D|----------------|----------------|----------------|----------------| x4
A|1010101010101010|6-6-6-6-6-6-6-6-|8-8-8-8-8-8-8-8-|8-8-8-8-8-8-8-8-|
E|----------------|----------------|----------------|----------------|
 1 & 2 & 3 & 4 & 1 & 2 & 3 & 4 & 1 & 2 & 3 & 4 & 1 & 2 & 3 & 4 &


🎸 Bridge: (2:18-2:34)

G|----------------|----------------|----------------|----------------|
D|----------------|----------------|----------------|----------------| x2
A|1010101010101010|6-6-6-6-6-6-6-6-|8-8-8-8-8-8-8-8-|8-8-8-8-8-8-8-8-|
E|----------------|----------------|----------------|----------------|
 1 & 2 & 3 & 4 & 1 & 2 & 3 & 4 & 1 & 2 & 3 & 4 & 1 & 2 & 3 & 4 &


🎸 Chorus: (2:34-3;06)

G|----------------|----------------|----------------|----------------|
D|----------------|----------------|----------------|----------------| x3
A|1010101010101010|6-6-6-6-6-6-6-6-|8-8-8-8-8-8-8-8-|8-8-8-8-8-8-8-8-|
E|----------------|----------------|----------------|----------------|
 1 & 2 & 3 & 4 & 1 & 2 & 3 & 4 & 1 & 2 & 3 & 4 & 1 & 2 & 3 & 4 &

G|----------------|----------------|----------------|----------------|
D|----------------|----------------|----------------|----------------|
A|1010101010101010|6-6-6-6-6-6-6-6-|8-8-8-8-8-8-8-8-|8-8-8-6-5-5-----|
E|----------------|----------------|----------------|------------3-3-|
 1 & 2 & 3 & 4 & 1 & 2 & 3 & 4 & 1 & 2 & 3 & 4 & 1 & 2 & 3 & 4 &

Almost there ...

Sign in to get your own page with links to favourite songs and more. You are just one click away...

Login with Facebook Login with Google