Log in

One click and you are in

Login with Facebook Login with Google

Why sign up and log in

Guitar Tabs Explorer
Echosmith bass tabs for Lost somebody

Bass tabs

Tuning: Standard (E A D G)


Key: F Major

Chorus: (0:00-0:24)

G|----------------|----------------|----------------|----------------|
D|----------------|----------------|----------------|----------------| x2
A|----------------|----------------|----------------|----------------|
E|----------------|----------------|----------------|----------------|
 1 & 2 & 3 & 4 & 1 & 2 & 3 & 4 & 1 & 2 & 3 & 4 & 1 & 2 & 3 & 4 &


G|----------------|----------------|----------------|----------5-----|
D|----------------|----------------|----------------|----------------| x2
A|1-1-1-1-1-1-1/8-|8-8-8-8-8-8-8-8-|5-5-5-5-5-5-5-3-|3-3-3-3-3---3-3-|
E|----------------|----------------|----------------|----------------|
 1 & 2 & 3 & 4 & 1 & 2 & 3 & 4 & 1 & 2 & 3 & 4 & 1 & 2 & 3 & 4 &


Verse 1: (0:24-0:48)

G|----------------|----------------|----------------|----------------|  ***
D|----------------|----------------|----------------|----------------|   *
A|1-1---1---------|8-8---8---------|5-5---5---------|3-3---3---------|   *
E|----------------|----------------|----------------|----------------|   *
 1 & 2 & 3 & 4 & 1 & 2 & 3 & 4 & 1 & 2 & 3 & 4 & 1 & 2 & 3 & 4 &    * (x2)
                                      *
G|----------------|----------------|----------------|----------5-----|   *
D|----------------|----------------|----------------|----------------|   *
A|1-1---1---------|8-8---8---------|5-5---5---------|3-3---3---------|   *
E|----------------|----------------|----------------|----------------|  ***
 1 & 2 & 3 & 4 & 1 & 2 & 3 & 4 & 1 & 2 & 3 & 4 & 1 & 2 & 3 & 4 &


Chorus: (0:48-1:24)

G|----------------|----------------|----------------|----------------|
D|----------------|----------------|----------------|----------------| x2
A|----------------|----------------|----------------|----------------|
E|----------------|----------------|----------------|----------------|
 1 & 2 & 3 & 4 & 1 & 2 & 3 & 4 & 1 & 2 & 3 & 4 & 1 & 2 & 3 & 4 &


G|----------------|----------------|----------------|----------------|
D|----------------|----------------|----------------|----------------|
A|1-1-1-1-1-1-1/8-|8-8-8-8-8-8-8-8-|5-5-5-5-5-5-5-3-|3-3-3-3-3-3-3-3-| x2
E|----------------|----------------|----------------|----------------|
 1 & 2 & 3 & 4 & 1 & 2 & 3 & 4 & 1 & 2 & 3 & 4 & 1 & 2 & 3 & 4 &

G|----------------|----------------|----------------|----------5-----|
D|----------------|----------------|----------------|----------------| x2
A|1-1-1-1-1-1-1/8-|8-8-8-8-8-8-8-8-|5-5-5-5-5-5-5-3-|3-3-3-3-3---3-3-|
E|----------------|----------------|----------------|----------------|
 1 & 2 & 3 & 4 & 1 & 2 & 3 & 4 & 1 & 2 & 3 & 4 & 1 & 2 & 3 & 4 &


Verse 2: (1:24-1:48)

G|----------------|----------------|----------------|----------------|  ***
D|----------------|----------------|----------------|----------------|   *
A|1-1---1---------|8-8---8---------|5-5---5---------|3-3---3---------|   *
E|----------------|----------------|----------------|----------------|   *
 1 & 2 & 3 & 4 & 1 & 2 & 3 & 4 & 1 & 2 & 3 & 4 & 1 & 2 & 3 & 4 &    * (x2)
                                      *
G|----------------|----------------|----------------|----------5-----|   *
D|----------------|----------------|----------------|----------------|   *
A|1-1---1---------|8-8---8---------|5-5---5---------|3-3---3---------|   *
E|----------------|----------------|----------------|----------------|  ***
 1 & 2 & 3 & 4 & 1 & 2 & 3 & 4 & 1 & 2 & 3 & 4 & 1 & 2 & 3 & 4 &


Chorus: (1:48-2:24)

G|----------------|----------------|----------------|----------------|
D|----------------|----------------|----------------|----------------| x2
A|----------------|----------------|----------------|----------------|
E|----------------|----------------|----------------|----------------|
 1 & 2 & 3 & 4 & 1 & 2 & 3 & 4 & 1 & 2 & 3 & 4 & 1 & 2 & 3 & 4 &

G|----------------|----------------|----------------|----------------|
D|----------------|----------------|----------------|----------------|
A|1-1---1---------|8-8---8---------|5-5---5---------|3-3---3---------|
E|----------------|----------------|----------------|----------------|
 1 & 2 & 3 & 4 & 1 & 2 & 3 & 4 & 1 & 2 & 3 & 4 & 1 & 2 & 3 & 4 &

G|----------------|----------------|----------------|----------5-----|
D|----------------|----------------|----------------|----------------|
A|1-1---1---------|8-8---8---------|5-5---5---------|3-3---3---------|
E|----------------|----------------|----------------|----------------|
 1 & 2 & 3 & 4 & 1 & 2 & 3 & 4 & 1 & 2 & 3 & 4 & 1 & 2 & 3 & 4 &

G|----------------|----------------|----------------|----------5-----|
D|----------------|----------------|----------------|----------------| x2
A|1-1-1-1-1-1-1/8-|8-8-8-8-8-8-8-8-|5-5-5-5-5-5-5-3-|3-3-3-3-3---3-3-|
E|----------------|----------------|----------------|----------------|
 1 & 2 & 3 & 4 & 1 & 2 & 3 & 4 & 1 & 2 & 3 & 4 & 1 & 2 & 3 & 4 &


Bridge: (2:24-2:48)
                           Gm   F
G|----------------|----------------|----------------|15------14------|
D|10--------------|12--------------|----------------|----------------| x2
A|----------------|----------------|10--------------|----------------|
E|----------------|----------------|----------------|15------13------|
 1 & 2 & 3 & 4 & 1 & 2 & 3 & 4 & 1 & 2 & 3 & 4 & 1 & 2 & 3 & 4 &

                           Gm   F
G|----------------|----------------|----------------|15------14------|
D|10----10----10--|12----12----12--|----------------|----------------|
A|----------------|----------------|10----10----10--|----------------|
E|----------------|----------------|----------------|15------13------|
 1 & 2 & 3 & 4 & 1 & 2 & 3 & 4 & 1 & 2 & 3 & 4 & 1 & 2 & 3 & 4 &

G|----------------|----------------|----------------|----------------|
D|----------------|----------------|----------------|----------------|
A|1---1---1---1---|1-----1---------|3---3---3---3---|3---3---3---3/--|
E|----------------|----------------|----------------|----------------|
 1 & 2 & 3 & 4 & 1 & 2 & 3 & 4 & 1 & 2 & 3 & 4 & 1 & 2 & 3 & 4 &


Chorus: (2:48-3:24)

G|----------------|----------------|----------------|----------------|
D|----------------|----------------|----------------|----------------|
A|8-8-8-8-8-8-8-8-|8-8-8-8-8-8-8-8-|8-8-8-8-8-8-8-8-|8-8-8-8-8-8-8-8-|
E|----------------|----------------|----------------|----------------|
 1 & 2 & 3 & 4 & 1 & 2 & 3 & 4 & 1 & 2 & 3 & 4 & 1 & 2 & 3 & 4 &

G|----------------|----------------|----------------|------------------|
D|----------------|----------------|----------------|------------------|
A|1-1---1-1-1-1-1-|8-8---8-8-8-8-8-|5-5---5-5-5-5-5-|3-3-3-3-3-3/15-15\|
E|----------------|----------------|----------------|------------------|
 1 & 2 & 3 & 4 & 1 & 2 & 3 & 4 & 1 & 2 & 3 & 4 & 1 & 2 & 3 & 4 &

G|----------------|----------------|----------------|----------5-----|
D|----------------|----------------|----------------|----------------| x3
A|1-1-1-1-1-1-1/8-|8-8-8-8-8-8-8-8-|5-5-5-5-5-5-5-3-|3-3-3-3-3---3-3-|
E|----------------|----------------|----------------|----------------|
 1 & 2 & 3 & 4 & 1 & 2 & 3 & 4 & 1 & 2 & 3 & 4 & 1 & 2 & 3 & 4 &

G|----------------|----------------|----------------|----------5-----|
D|----------------|----------------|----------------|----------------|
A|1-1-1-1-1-1-1/8-|8-8-8-8-8-8-8-8-|5-5-5-5-5-5-5-3-|3-3-3-3-3---3---|
E|----------------|----------------|----------------|----------------|
 1 & 2 & 3 & 4 & 1 & 2 & 3 & 4 & 1 & 2 & 3 & 4 & 1 & 2 & 3 & 4 &


************************************

| /  Slide up
| \  Slide down

************************************

Almost there ...

Sign in to get your own page with links to favourite songs and more. You are just one click away...

Login with Facebook Login with Google