Log in

One click and you are in

Login with Facebook Login with Google

Why sign up and log in

Guitar Tabs Explorer
Echosmith bass tabs for Lonely generation

Bass tabs

Tuning: Standard (E A D G)


Key: D Major
Chorus:

G|----------------|----------------|----------------|----------------|
D|----------------|----------------|----------------|----------------| x2
A|----------------|----------------|----------------|----------------|
E|----------------|----------------|----------------|----------------|
 1 & 2 & 3 & 4 & 1 & 2 & 3 & 4 & 1 & 2 & 3 & 4 & 1 & 2 & 3 & 4 &

G|----------------|----------------|----------------|----------------|
D|----------------|----------------|----------------|----------------| x2
A|--------------5-|9---9-----7-7h9-|5---5-----4-5-4-|5---5-----7-5-0-|
E|7---7-----5-7---|----------------|----------------|----------------|
 1 & 2 & 3 & 4 & 1 & 2 & 3 & 4 & 1 & 2 & 3 & 4 & 1 & 2 & 3 & 4 &


Verse 1:

G|----------------|----------------|----------------|----------------|
D|----------------|----------------|----------------|----------------| x4
A|--------------5-|9---9-----7-7h9-|5---5-----4-5-4-|5---5-----7-5-0-|
E|7---7-----5-7---|----------------|----------------|----------------|
 1 & 2 & 3 & 4 & 1 & 2 & 3 & 4 & 1 & 2 & 3 & 4 & 1 & 2 & 3 & 4 &


Chorus:

G|----------------|----------------|----------------|----------------|
D|----------------|----------------|----------------|----------------| x2
A|----------7-9-7-|5-----5-----5---|----------7-9-7-|5-----5-----7---|
E|3-----3-3/------|--------5-7---7-|3-----3-3/------|--------5-7---7-|
 1 & 2 & 3 & 4 & 1 & 2 & 3 & 4 & 1 & 2 & 3 & 4 & 1 & 2 & 3 & 4 &

G|----------------|----------------|----------------|----------------|
D|----------------|----------------|----------------|----------------|
A|--------------5-|9---9-----7-7h9-|5---5-----4-5-4-|5---5-----7-5-0-|
E|7---7-----5-7---|----------------|----------------|----------------|
 1 & 2 & 3 & 4 & 1 & 2 & 3 & 4 & 1 & 2 & 3 & 4 & 1 & 2 & 3 & 4 &


Verse 2:

G|----------------|----------------|----------------|----------------|
D|----------------|----------------|----------------|----------------| x4
A|--------------5-|9---9-----7-7h9-|5---5-----4-5-4-|5---5-----7-5-0-|
E|7---7-----5-7---|----------------|----------------|----------------|
 1 & 2 & 3 & 4 & 1 & 2 & 3 & 4 & 1 & 2 & 3 & 4 & 1 & 2 & 3 & 4 &


Chorus:

G|----------------|----------------|----------------|----------------|
D|----------------|----------------|----------------|----------------| x2
A|----------7-9-7-|5-----5-----5---|----------7-9-7-|5-----5-----7---|
E|3-----3-3/------|--------5-7---7-|3-----3-3/------|--------5-7---7-|
 1 & 2 & 3 & 4 & 1 & 2 & 3 & 4 & 1 & 2 & 3 & 4 & 1 & 2 & 3 & 4 &

G|----------------|----------------|----------------|----------------|
D|----------------|----------------|----------------|----------------|
A|--------------5-|9---9-----7-7h9-|5---5-----4-5-4-|5---5-----7-5-0-|
E|7---7-----5-7---|----------------|----------------|----------------|
 1 & 2 & 3 & 4 & 1 & 2 & 3 & 4 & 1 & 2 & 3 & 4 & 1 & 2 & 3 & 4 &


Bridge:

G|----------------|----------------|----------------|----------------|
D|----------------|----------------|----------------|----------------|
A|----------------|----------------|----------------|----------------|
E|3---------------|5---------------|7---------------|2---------------|
 1 & 2 & 3 & 4 & 1 & 2 & 3 & 4 & 1 & 2 & 3 & 4 & 1 & 2 & 3 & 4 &

G|----------------|----------------|----------------|----------------|
D|----------------|----------------|----------------|----------------|
A|----------------|----------------|----------------|----------------|
E|3---------------|5---------------|7---------------|2---2---2-2-2-2-|
 1 & 2 & 3 & 4 & 1 & 2 & 3 & 4 & 1 & 2 & 3 & 4 & 1 & 2 & 3 & 4 &


Chorus:

G|----------------|----------------|----------------|----------------|
D|----------------|----------------|----------------|----------------| x4
A|----------7-9-7-|5-----5-----5---|----------7-9-7-|5-----5-----7---|
E|3-----3-3/------|--------5-7---7-|3-----3-3/------|--------5-7---7-|
 1 & 2 & 3 & 4 & 1 & 2 & 3 & 4 & 1 & 2 & 3 & 4 & 1 & 2 & 3 & 4 &


Outro:

G|----------------|----------------|----------------|----------------|
D|----------------|----------------|----------------|----------------| x2
A|--------------5-|9---9-----7-7h9-|5---5-----4-5-4-|5---5-----7-5-0-|
E|7---7-----5-7---|----------------|----------------|----------------|
 1 & 2 & 3 & 4 & 1 & 2 & 3 & 4 & 1 & 2 & 3 & 4 & 1 & 2 & 3 & 4 &

G|----------------|----------------|----------------|----------------|
D|----------------|----------------|----------------|----------------|
A|----------------|----------------|----------------|----------------|
E|7---------------|----------------|----------------|----------------|
 1 & 2 & 3 & 4 & 1 & 2 & 3 & 4 & 1 & 2 & 3 & 4 & 1 & 2 & 3 & 4 &


************************************

| h  Hammer-on
| p  Pull-off
| /  Slide up
| \  Slide down

************************************

Almost there ...

Sign in to get your own page with links to favourite songs and more. You are just one click away...

Login with Facebook Login with Google