Log in

One click and you are in

Login with Facebook Login with Google

Why sign up and log in

Guitar Tabs Explorer
Echosmith bass tabs for Last forever

Bass tabs

Tuning: Standard (E A D G)


Key: E Major

🎸 Intro: (0:00-0:16)

G|--------|
D|--------|
A|NO--BASS|
E|--------|
 1 & 2 &
G|----------------|----------------|----------------|----------------|
D|11-9--7--------6|7--9------------|11-9--7--------6|7--9------------|
A|----------------|------4---------|----------------|------4---------|
E|----------------|----------------|----------------|----------------|
 1 & 2 & 3 & 4 & 1 & 2 & 3 & 4 & 1 & 2 & 3 & 4 & 1 & 2 & 3 & 4 &


🎸 Verse 1: (0:16-0:44)

G|----------------|----------------|----------------|
D|----------------|----------------|----------------|
A|----NO--BASS----|----NO--BASS----|----NO--BASS----|
E|----------------|----------------|----------------|
 1 & 2 & 3 & 4 & 1 & 2 & 3 & 4 & 1 & 2 & 3 & 4 &

G|----------------|----------------|----------------|
D|----------------|----------------|----------------|
A|----NO--BASS----|----NO--BASS----|----NO--BASS----|
E|----------------|----------------|----------------|
 1 & 2 & 3 & 4 & 1 & 2 & 3 & 4 & 1 & 2 & 3 & 4 &

G|----------------|----------------|
D|6-----6--66--6--|7-----7--77-9---|
A|----------------|----------------|
E|----------------|----------------|
 1 & 2 & 3 & 4 & 1 & 2 & 3 & 4 &

🎸 Chorus: (0:44-1:19)

G|----------------|----------------|----------------|
D|----------------|7-----7-6-------|7-----7-9-------|
A|7---------------|----------------|----------------|
E|----------------|----------------|----------------|
 1 & 2 & 3 & 4 & 1 & 2 & 3 & 4 & 1 & 2 & 3 & 4 &

G|----------------|----------------|----------------|
D|----------------|7-----7-6-------|7-----7-9-------|
A|4-----4-7-------|----------------|----------------|
E|----------------|----------------|----------------|
 1 & 2 & 3 & 4 & 1 & 2 & 3 & 4 & 1 & 2 & 3 & 4 &

G|----------------|----------------|----------------|----------------|
D|11-9--7--------6|7--9------------|11-9--7--------6|7--9------------|
A|----------------|------4---------|----------------|------4---------|
E|----------------|----------------|----------------|----------------|
 1 & 2 & 3 & 4 & 1 & 2 & 3 & 4 & 1 & 2 & 3 & 4 & 1 & 2 & 3 & 4 &


🎸 Verse 2: (1:19-1:37)

G|----------------|----------------|----------------|
D|----------------|----------------|----------------|
A|----NO--BASS----|----NO--BASS----|----NO--BASS----|
E|----------------|----------------|----------------|
 1 & 2 & 3 & 4 & 1 & 2 & 3 & 4 & 1 & 2 & 3 & 4 &

G|----------------|----------------|
D|6-----6--66--6--|7-----7--77-9---|
A|----------------|----------------|
E|----------------|----------------|
 1 & 2 & 3 & 4 & 1 & 2 & 3 & 4 &


🎸 Chorus: (1:37-2:11)

G|----------------|----------------|----------------|
D|----------------|7-----7-6-------|7-----7-9-------|
A|7---------------|----------------|----------------|
E|----------------|----------------|----------------|
 1 & 2 & 3 & 4 & 1 & 2 & 3 & 4 & 1 & 2 & 3 & 4 &

G|----------------|----------------|----------------|
D|----------------|7-----7-6-------|7-----7-9-------|
A|4-----4-7-------|----------------|----------------|
E|----------------|----------------|----------------|
 1 & 2 & 3 & 4 & 1 & 2 & 3 & 4 & 1 & 2 & 3 & 4 &

G|----------------|----------------|----------------|----------------|
D|11-9--7--------6|7--9------------|11-9--7--------6|7--9------------|
A|----------------|------4---------|----------------|------4---------|
E|----------------|----------------|----------------|----------------|
 1 & 2 & 3 & 4 & 1 & 2 & 3 & 4 & 1 & 2 & 3 & 4 & 1 & 2 & 3 & 4 &


🎸 Bridge: (2:11-2:29)

G|----------------|----------------|
D|----------------|7-----7-9----9--|
A|9-----9-7-------|----------------|
E|----------------|----------------|
 1 & 2 & 3 & 4 & 1 & 2 & 3 & 4 &

G|----------------|----------------|----------------|
D|11-9--7--------6|7--9------------|--------9-9-9-9-|
A|----------------|------4---------|9--9--9---------|
E|----------------|----------------|----------------|
 1 & 2 & 3 & 4 & 1 & 2 & 3 & 4 & 1 & 2 & 3 & 4 &


🎸 Chorus: (2:29-3:02)

G|----------------|----------------|----------------|
D|----------------|7-----7-6-------|7-----7-9-------|
A|7---------------|----------------|----------------|
E|----------------|----------------|----------------|
 1 & 2 & 3 & 4 & 1 & 2 & 3 & 4 & 1 & 2 & 3 & 4 &

G|----------------|----------------|----------------|
D|----------------|7-----7-6-------|7-----7-9-------|
A|4-----4-7-------|----------------|----------------|
E|----------------|----------------|----------------|
 1 & 2 & 3 & 4 & 1 & 2 & 3 & 4 & 1 & 2 & 3 & 4 &

G|----------------|----------------|----------------|----------------|
D|11-9--7--------6|7--9------------|11-9--7--------6|7--9------------|
A|----------------|------4---------|----------------|------7---------|
E|----------------|----------------|----------------|----------------|
 1 & 2 & 3 & 4 & 1 & 2 & 3 & 4 & 1 & 2 & 3 & 4 & 1 & 2 & 3 & 4 &

Almost there ...

Sign in to get your own page with links to favourite songs and more. You are just one click away...

Login with Facebook Login with Google