Search tabs and chords

Browse bands and artists

A B C D E F G H I J K L M N O P Q R S T U V W X Y Z #

Log in

[ Register here | Forgot password ]

Guitar Tabs Explorer
Print

Diet Of Worms tab by Echo Hollow Tabs

Guitar tabs

Diet of Worms
From the album "Diet of Worms"
By Echo Hollow
copyright 1998 ECHO HOLLOW MUSIC (ASCAP)
Transcribed by Dave Andrea  10/07/2000
fumanchu42@hotmail.com

Notes: the numbers in parenthesis correspond to the time in minutes
on the CD. A.H. stands for Artificial Harmonic (pinch harmonic).
h = hammer on, p = pull off, B = bend, r = release, t = tap


(0:10)
E-----0-----(0)-----0-----------0-------------0-----------0--------0------

B-----5-------------0-----------5-------------0-----------5--------0------

G-----4-------------2-----------4-----(1)-----2-----------4--------2------

D-----2-------------3-----------2-------------3-----------2--------3------

A-----2-------------3-----------2-------------3-----------2--------3------

E-----0-------------1-----------0-------------1-----------0--------1------




E---------0--------0-----------------|----------------------------------

B---------5--------0-----------------|----------------------------------

G---------4--------2-----------------|----------------------------------

D---------2--------3--------/-----\--|----------------------------------

A---------2--------3--------/-----\--|----------------------------------

E---------0--------1--------/-----\--|----------------------------------



(0:43) Pre-verse
E-||----------------------------------------------------------------------

B-||----------------------------------------------------------------------

G-||*---------------------------------------------------------------------

D-||*-2--------------------2-----------------------2----------------------

A-||--2--------------------2-----------------------2----------------------

E-||--0-----0--0--5--4--3--0-----0--0--0--5--4--3--0--0--2--2--2--2--2----

. . . . . . . . . . . . . . . . .

A.H. A.H.
E-------------------------------|---------------------------------------

B-------------------------------|---------------------------------------

G-------------------------------|---------------------------------------

D--------------------------0h2--|---------------------------------------

A---------------------0h2-------|---------------------------------------

E---2--3-----3-----3------------|---------------------------------------

. . . .


E-----------------------------------------------------------------------

B-----------------------------------------------------------------------

G-----------------------------------------------------------------------

D---2--------------------2-----------------------2----------------------

A---2--------------------2-----------------------2----------------------

E---0-----0--0--5--4--3--0-----0--0--0--5--4--3--0--0--2--2--2--2--2----

. . . . . . . . . . . . . . . . .

A.H.
E-----------------------------||----------------------------------------

B-----------------------------||----------------------------------------

G----------------------------*||----------------------------------------

D----------------------------*||----------------------------------------

A---------------------2~~~----||----------------------------------------

E---2--3-----3-----3----------||----------------------------------------

. . . .



Verse 1
E---||-----------------------------------------------------------|------

B---||-----------------------------------------------------------|------

G---||*----------------------------------------------------------|------

D---||*--2--------2-------------------------------------------0--|------

A---||---2--------2--------------------------------------0h2-----|------

E---||---0-----0--0--0--2--2--2--2--2--2--3-----3-----3----------|------

. . . . . . . . . . .

2x
E------------------------------------------------------------||---------

B------------------------------------------------------------||---------

G-----------------------------------------------------------*||---------

D---2--------2-------------------------------------------0--*||---------

A---2--------2--------------------------------------0h2------||---------

E---0-----0--0--0--2--2--2--2--2--2--3-----3-----3-----------||---------

. . . . . . . . . . .


E---1--------1--------------0--------3--------------1--------1----------

B---2--------1--------------1--------0--------------2--------1----------

G---3--------2--------------0--------0--------------3--------2----------

D---3--------3--------------x--------0--------------3--------3----------

A---1--------3--------------3--------x--------------1--------3----------

E------------1--------1--1-----------3--------3--3-----------1----------

. . . .

End Verse 1 Play Pre-verse then Verse 2
E------------------|--------------------------------------------|-------

B------------------|--------------------------------------------|-------

G---5--------------|--------------------------------------------|-------

D---5-----5-----3--|--------------------------------------------|-------

A---3-----5-----3--|--------------------------------------------|-------

E---------3-----1--|--------------------------------------------|-------



(1:51) - Chorus
E---||---0--------5-------------0--(0)-----0--(0)-----0--------5--------

B---||---0--------5-------------1----------3----------0--------5--------

G---||*--2--------2-------------0----------2----------2--------2--------

D---||*--2--------2-------------2----------0----------2--------2--------

A---||---0--------0--------0h2--3---------------------0--------0--------

E---||------------------------------------------------------------------



2x
E-----------0--(0)-----0--(0)---||--------------------------------------

B-----------1----------3--------||--------------------------------------

G-----------0----------2-------*||--------------------------------------

D-----------2----------0-------*||--------------------------------------

A------0h2--3-------------------||--------------------------------------

E-------------------------------||--------------------------------------



3x
E---||-------------------------------------------||---------------------

B---||-------------------------------------------||---------------------

G---||*-----------------------------------------*||---------------------

D---||*--4-----4--/--9--9--\--4-----9--\--4-----*||---------------------

A---||---x-----x-----x--x-----x-----x-----x------||---------------------

E---||---2-----2--/--7--7--\--2-----7--\--2~~~---||---------------------




E-----------------------------------------------------------------------

B-----------------------------------------------------------------------

G-----------------------------------------------------------------------

D---4-----4--/--9-----9--\--4-------------------------------------------

A---x-----x-----x-----x-----x-------------------------------------------

E---2-----2--/--7-----7--\--2-------------------------------------------



4x
E---||----------------------------------------------||------------------

B---||----------------------------------------------||------------------

G---||*--------------------------------------------*||------------------

D---||*--4-----4--/--9-----9--\--4-----9--\--4-----*||------------------

A---||---x-----x-----x-----x-----x-----x-----x------||------------------

E---||---2-----2--/--7-----7--\--2-----7--\--2~~~---||------------------




E-----------------------------------------------------------------------

B-----------------------------------------------------------------------

G---3--------5----------------------------------------------------------

D---3--------5----------------------------------------------------------

A---1--------3----------------------------------------------------------

E-----------------------------------------------------------------------



4x
E---||----------------------------------------------||------------------

B---||----------------------------------------------||------------------

G---||*--------------------------------------------*||------------------

D---||*--4-----4--/--9-----9--\--4-----9--\--4-----*||------------------

A---||---x-----x-----x-----x-----x-----x-----x------||------------------

E---||---2-----2--/--7-----7--\--2-----7--\--2~~~---||------------------



8x
E---||-------------------------------------------------||---------------

B---||-------------------------------------------------||---------------

G---||*-----------------------------------------------*||---------------

D---||*-----------------------------------------------*||---------------

A---||-------------------------------------------------||---------------

E---||---2--2--2-----2--2--2-----2--2--2-----2--2--2---||---------------

. . . . . . . . . . . .

(2:58)
E---3-------------------------------------------------------------------

B---0-------------------------------------------------------------------

G---0-------------------------------------------------------------------

D---0-------------------------------------------------------------------

A---x-------------------------------------------------------------------

E---3------/----\-------------------------------------------------------




E---||------------------------------------------------------------------

B---||------------------------------------------------------------------

G---||*-----------------------------------------------------------------

D---||*-----------------------------------------------------------------

A---||---------------5--4--2-----------------5--4--2-----------2--------

E---||---2--2--2-----------------2--2--2-----------------3--3-----------

. . . . . . . . .

4x
E------------------||---------------------------------------------------

B------------------||---------------------------------------------------

G-----------------*||---------------------------------------------------

D-----------------*||---------------------------------------------------

A------------2h3---||---------------------------------------------------

E---3--3--3--------||---------------------------------------------------

. . .


E---||------------------------------------------------------------------

B---||------------------------------------------------------------------

G---||*--------------7--6--4-----------------7--6--4-----------4--------

D---||*--4--4--4-----------------4--4--4-----------------5--5-----------

A---||------------------------------------------------------------------

E---||------------------------------------------------------------------

. . . . . . . .

4x
E------------------||---------------------------------------------------

B------------------||---------------------------------------------------

G------------4h5--*||---------------------------------------------------

D---5--5--5-------*||---------------------------------------------------

A------------------||---------------------------------------------------

E------------------||---------------------------------------------------

. . .


E---||------------------------------------------------------------------

B---||------------------------------------------------------------------

G---||*-----------------------------------------------------------------

D---||*-----------------------------------------------------------------

A---||---------------5--4--2-----------------5--4--2-----------2--------

E---||---2--2--2-----------------2--2--2-----------------3--3-----------

. . . . . . . .

3x
E------------------||---------------------------------------------------

B------------------||---------------------------------------------------

G-----------------*||---------------------------------------------------

D-----------------*||---------------------------------------------------

A------------2h3---||---------------------------------------------------

E---3--3--3--------||---------------------------------------------------

. . .


E-----------------------------------------------------------------------

B-----------------------------------------------------------------------

G-----------------------------------------------------------------------

D-----------------------------------------------------------------------

A---------------5--4--2-----------------5--4--2-----------2-------------

E---2--2--2-----------------2--2--2-----------------3--3--------3--3----

. . . . . . . . . .

(4:03) 2x
E---------||-----------------------------------------------------||-----

B---------||-----------------------------------------------------||-----

G---------||*--4-------------------4----------------------------*||-----

D------1--||*--4-------------------4----------------------------*||-----

A------2--||---0h2--2--2--2--2-----0h2--2--2--2--2--2--2--2--2---||-----

E---3-----||-----------------------------------------------------||-----

. . . . . . . . . . . . .


E---||--------------------------------------------------------------||--

B---||--------------------------------------------------------------||--

G---||*--0--h--2-----------------0--h--2---------------------------*||--

D---||*--0--h--2-----------------0--h--2---------------------------*||--

A---||------------0--0--0--0--------------0--0--0--0--0--0--0--0----||--

E---||--------------------------------------------------------------||--

. . . . . . . . . . . .

Repeat Chorus


(4:53) - Slow Lead
E-----------------------------------------------------------------------

B--------------------------12-------------------------------------------

G---14p12p11h12--14~~~---------14--12--11\9-----------------------------

D--------------------------------------------12~~~--14^-(15)------------

A-----------------------------------------------------------------------

E-----------------------------------------------------------------------



Bend and release repeatedly
E--------------------------------------------------------------|--------

B--------------------------------------------------------------|--------

G---------------------------------12^ (14)-r-12p10h12~~~--10\--|--------

D---14^-(15)...------------------------------------------------|--------

A--------------------------------------------------------------|--------

E--------------------------------------------------------------|--------




E-----------------------------------------------------------------------

B-----------------------------12----------------------------------------

G---12h14p12p11h12--14~~~---------14--12--11\9--------------------------

D-----------------------------------------------12~~~--14^-(15)---------

A-----------------------------------------------------------------------

E-----------------------------------------------------------------------



Bend and release repeatedly
E-----------------------------------------------------------|-----------

B-----------------------------------------------------------|-----------

G------------------------------12^ (14)-r-12p10h12~~~--10\--|-----------

D---14^--(15)...--------------------------------------------|-----------

A-----------------------------------------------------------|-----------

E-----------------------------------------------------------|-----------



(5:22)
E---15^-(17)-15^-(17)-12~~~---------------------------------------------

B----------------------------------------13-----15--15--15~~~-----13h15-

G---------------------------14--14~~~\----------------------------------

D-----------------------------------------------------------------------

A-----------------------------------------------------------------------

E-----------------------------------------------------------------------




E--------------16^(17)^-(18)--15~~~--|----------------------------------

B---15~~~--13------------------------|----------------------------------

G------------------------------------|----------------------------------

D------------------------------------|----------------------------------

A------------------------------------|----------------------------------

E------------------------------------|----------------------------------




E---17--20^--(22)-r20--17--20^--(22)-r20--17--20^~~~--20^--20--17-------

B----------------------------------------------------------------20-----

G-----------------------------------------------------------------------

D-----------------------------------------------------------------------

A-----------------------------------------------------------------------

E-----------------------------------------------------------------------




E---17--20--|-----------------------------------------------------------

B-----------|-----------------------------------------------------------

G-----------|-----------------------------------------------------------

D-----------|-----------------------------------------------------------

A-----------|-----------------------------------------------------------

E-----------|-----------------------------------------------------------

As close as I could get on the finger tapping action...

t t t t t t t
E--17p0h15--17p0h12--17p0h15--17p0h12--17p0h15--17p0h12--17p0h15--------

B-----------------------------------------------------------------------

G-----------------------------------------------------------------------

D-----------------------------------------------------------------------

A-----------------------------------------------------------------------

E-----------------------------------------------------------------------



t (5:48)
E---17p0h12-----20^--|----------------------------||--------------------

B--------------------|-----------1~~~-----1h3~~~--||--------------------

G--------------------|--3--------0--------2-------||--------------------

D--------------------|--3--------x--------0-------||--------------------

A--------------------|--1~~~-----3----------------||--------------------

E--------------------|----------------------------||--------------------

Comments