Log in

One click and you are in

Login with Facebook Login with Google

Why sign up and log in

Guitar Tabs Explorer
Echo & The Bunnymen bass tabs for Turquoise days

Bass tabs

Tuning: Standard tuning


Tabbed by: bassm99
E-mail: alanmatthews1966@yahoo.co.uk
Tuning: E, A, D, G


Intro: (Play Twice)

G|--------------------------------------------------------------------------|
D|--------------------------------------------------------------------------|
A|--7-----------------------------------------------------------------------|
E|--------------------------------------------------------------------------|


Verse:

G|--------------------------------------------------------------------------|
D|-------------------5------------------5-----------------------------------|
A|--7-(x2)--7----7-9---7-(x2)----7--7-9---7-(x4)----------------------------|
E|--------------------------------------------------------------------------|


Chorus: (* Over Dub Note) (First Few Notes Fade In)

G|--------------------------------------------------------------------------|
D|-------------------------------55555555-----------------------------------|
A|--7*-(x1)----77777777-77777777----------77777777-(x9)---------------------|
E|--------------------------------------------------------------------------|

G|--------------------------------------------------------------------------|
D|--------------------55555555----------------------------------------------|
A|--77777777-77777777----------7-(x1)---------------------------------------|
E|--------------------------------------------------------------------------|


Instrumental: (Play Twice)

G|--------------------------------------------------------------------------|
D|-----------5--------------------------------------------------------------|
A|--7----7-9---7------------------------------------------------------------|
E|--------------------------------------------------------------------------|


Verse: (Fades Out)

G|--------------------------------------------------------------------------|
D|-----------5--------------5-----------------------------------------------|
A|--7----7-9---7-(x9)----7----7---------------------------------------------|
E|--------------------------------------------------------------------------|

Turquoise Days bass tab

Echo & The Bunnymen bass tabs for Turquoise days "Turquoise Days" from the album "Heaven Up Here" (1981).

Written by Sergeant/McCulloch/Pattinson/de Freitas.

Almost there ...

Sign in to get your own page with links to favourite songs and more. You are just one click away...

Login with Facebook Login with Google