Log in

One click and you are in

Login with Facebook Login with Google

Why sign up and log in

Guitar Tabs Explorer
Echo & The Bunnymen bass tabs for The killing moon

The Killing Moon bass tab by Echo & The Bunnymen

Echo & The Bunnymen bass tabs for The killing moon

Bass tabs

Tuning: Standard (E A D G)

Difficulty: Novice


Intro: Bass comes in at 0:14
G|---------------------------------|---------------------------------|
D|---------------------------------|---------------------------------|
A|---------------------------------|-------------------------5-------|
E|---------------------------------|---------------------------------|
  1 + + + 2 + + + 3 + + + 4 + + +  1 + + + 2 + + + 3 + + + 4 + + +

G|---------------------------------|---------------------------------|
D|---------------------------------|---------------------------------|
A|-7-----------7-------7---5---5---|-7-----------7-----------5---5---|
E|---------------------------------|---------------------------------|
  1 + + + 2 + + + 3 + + + 4 + + +  1 + + + 2 + + + 3 + + + 4 + + +

G|---------------------------------|---------------------------------|
D|-------------5-------5-----------|-------------5-------5-----------|
A|-3-----------------------5---0---|-3-------3---------------5-------|
E|---------------------------------|---------------------------------|
  1 + + + 2 + + + 3 + + + 4 + + +  1 + + + 2 + + + 3 + + + 4 + + +


Verse 1: "Under blue moon ..."
G|---------------------------------|---------------------------------|
D|---------------------------------|---------------------------------|\
A|-7-----------7-------7---5---5---|-7-----------7-------7---5---5---| \
E|---------------------------------|---------------------------------| \
  1 + + + 2 + + + 3 + + + 4 + + +  1 + + + 2 + + + 3 + + + 4 + + +   \
                                     (x3)
G|---------------------------------|---------------------------------|  /
D|-------------5-------5-----------|-------------5-------5-----------| /
A|-3-------3---------------5---5---|-3-------3---------------5---5---| /
E|---------------------------------|---------------------------------|/
  1 + + + 2 + + + 3 + + + 4 + + +  1 + + + 2 + + + 3 + + + 4 + + +

Chorus 1: "Fate ..."
G|---------------------------------|---------------------------------|
D|---------------------------------|-------------------------5-------|
A|---------------------------------|-3---3-------3-------3-------3---| (x4)
E|-3---3-------3---3---3-------3---|---------------------------------|
  1 + + + 2 + + + 3 + + + 4 + + +  1 + + + 2 + + + 3 + + + 4 + + +

G|---------------------------------|---------------------------------|
D|---------------------------------|---------------------------------|
A|---------------------------------|-3---3-------3-------3---5-------|
E|-3-----------3---3---3-------3---|---------------------------------|
  1 + + + 2 + + + 3 + + + 4 + + +  1 + + + 2 + + + 3 + + + 4 + + +

Interlude:
G|---------------------------------|---------------------------------|
D|---------------------------------|---------------------------------|
A|-7-----------7-------7---5---5---|-7-------7.--7-------7---5-------|
E|---------------------------------|---------------------------------|
  1 + + + 2 + + + 3 + + + 4 + + +  1 + + + 2 + + + 3 + + + 4 + + +

G|---------------------------------|---------------------------------|
D|-------------5-------5-----------|-------------5-------5-----------|
A|-3-------3---------------5---5---|-3-------3---------------5---5---|
E|---------------------------------|---------------------------------|
  1 + + + 2 + + + 3 + + + 4 + + +  1 + + + 2 + + + 3 + + + 4 + + +


Verse 2: "In starlit nights"
G|---------------------------------|---------------------------------|
D|---------------------------------|---------------------------------|\
A|-7-----------7-------7---5---5---|-7-----------7-------7---5---5---| \
E|---------------------------------|---------------------------------| \
  1 + + + 2 + + + 3 + + + 4 + + +  1 + + + 2 + + + 3 + + + 4 + + +   \
                                     (x3)
G|---------------------------------|---------------------------------|  /
D|-------------5-------5-----------|-------------5-------5-----------| /
A|-3-------3---------------5---5---|-3-------3---------------5---5---| /
E|---------------------------------|---------------------------------|/
  1 + + + 2 + + + 3 + + + 4 + + +  1 + + + 2 + + + 3 + + + 4 + + +


Chorus 2: "Fate ..."
G|---------------------------------|---------------------------------|
D|---------------------------------|-------------------------5-------|
A|---------------------------------|-3---3-------3-------3-------3---| (x4)
E|-3---3-------3---3---3-------3---|---------------------------------|
  1 + + + 2 + + + 3 + + + 4 + + +  1 + + + 2 + + + 3 + + + 4 + + +

G|---------------------------------|---------------------------------|
D|---------------------------------|-------------------------5---/---|
A|---------------------------------|-3---3-------3-------3-----------|
E|-3-----------3---3-----------3---|---------------------------------|
  1 + + + 2 + + + 3 + + + 4 + + +  1 + + + 2 + + + 3 + + + 4 + + +


Solo:
G|---------------------------------|---------------------------------|
D|-9-9-9-9-9-9-9-9-9-9-9-9-9-9-9-9-|-7-7-7-7-7-7-7-7-7-7-7-7-7-7-7-7-| (Really fast strumming)
A|---------------------------------|---------------------------------|
E|---------------------------------|---------------------------------|
  1 + + + 2 + + + 3 + + + 4 + + +  1 + + + 2 + + + 3 + + + 4 + + +

G|---------------------------------|---------------------------------|
D|-5-5-5-5-5-5-2-2-2-2-2-2-2-2-2-2-|-2-2-2-2-2-2-2-2-2-2-2-2-2-2-2/--|
A|---------------------------------|---------------------------------|
E|---------------------------------|---------------------------------|
  1 + + + 2 + + + 3 + + + 4 + + +  1 + + + 2 + + + 3 + + + 4 + + +

G|---------------------------------|---------------------------------|
D|-9-9-9-9-9-9-9-9-9-9-9-9-9-9-9-9-|-7-7-7-7-7-7-7-7-7-7-7-7-7-7-7-7-|\
A|---------------------------------|---------------------------------| \
E|---------------------------------|---------------------------------| \
  1 + + + 2 + + + 3 + + + 4 + + +  1 + + + 2 + + + 3 + + + 4 + + +   \
                                     (x2)
G|---------------------------------|---------------------------------|  /
D|-5-5-5-5-5-5-2-2-2-2-2-2-2-2-2-2-|-2-2-2-2-2-2-2-2-----------------| /
A|---------------------------------|---------------------------------| /
E|---------------------------------|-----------------0-0-0-0-0-0-0-0-|/
  1 + + + 2 + + + 3 + + + 4 + + +  1 + + + 2 + + + 3 + + + 4 + + +

G|---------------------------------|---------------------------------|
D|-9-9-9-9-9-9-9-9-9-9-9-9-9-9-9-9-|-7-7-7-7-7-7-7-7-7-7-7-7-7-7-7-7-|
A|---------------------------------|---------------------------------|
E|---------------------------------|---------------------------------|
  1 + + + 2 + + + 3 + + + 4 + + +  1 + + + 2 + + + 3 + + + 4 + + +

G|---------------------------------|---------------------------------|
D|-5-5-5-5-5-5-0-0-0-0-0-0-0-0-0-0-|-0-0-0-0-0-0-0-0-0-0-0-0-0-0-0-0-|
A|---------------------------------|---------------------------------|
E|---------------------------------|---------------------------------|
  1 + + + 2 + + + 3 + + + 4 + + +  1 + + + 2 + + + 3 + + + 4 + + +

Interlude:
G|---------------------------------|---------------------------------|
D|---------------------------------|---------------------------------|
A|-7-----------7-------7---5---5---|-7-----------7-------7---5---5---|
E|---------------------------------|---------------------------------|
  1 + + + 2 + + + 3 + + + 4 + + +  1 + + + 2 + + + 3 + + + 4 + + +

G|---------------------------------|---------------------------------|
D|-------------5-------5-----------|-------------5-------5-----------|
A|-3-----------------------5---0---|-3-------3---------------5---5---|
E|---------------------------------|---------------------------------|
  1 + + + 2 + + + 3 + + + 4 + + +  1 + + + 2 + + + 3 + + + 4 + + +


Verse 3: "Under blue moon ..."
G|---------------------------------|---------------------------------|
D|---------------------------------|---------------------------------|\
A|-7-----------7-------7---5---5---|-7-----------7-------7---5---5---| \
E|---------------------------------|---------------------------------| \
  1 + + + 2 + + + 3 + + + 4 + + +  1 + + + 2 + + + 3 + + + 4 + + +   \
                                     (x3)
G|---------------------------------|---------------------------------|  /
D|-------------5-------5-----------|-------------5-------5-----------| /
A|-3-------3---------------5---5---|-3-------3---------------5---5---| /
E|---------------------------------|---------------------------------|/
  1 + + + 2 + + + 3 + + + 4 + + +  1 + + + 2 + + + 3 + + + 4 + + +


Chorus 3: "Fate ..."
G|---------------------------------|---------------------------------|
D|---------------------------------|-------------------------5-------|
A|---------------------------------|-3---3-------3-------3-------3---| (x4) \
E|-3---3-------3---3---3-------3---|---------------------------------|    \
  1 + + + 2 + + + 3 + + + 4 + + +  1 + + + 2 + + + 3 + + + 4 + + +     \
                                        Repeat and fade
G|---------------------------------|---------------------------------|    /
D|---------------------------------|-------------------------5-------|    /
A|---------------------------------|-3---3-------3-------3-------3---|   /
E|-3-----------3---3-----------3---|---------------------------------|
  1 + + + 2 + + + 3 + + + 4 + + +  1 + + + 2 + + + 3 + + + 4 + + +


***********************************

| / Slide up
| . Staccato

***********************************

Almost there ...

Sign in to get your own page with links to favourite songs and more. You are just one click away...

Login with Facebook Login with Google