Log in

One click and you are in

Login with Facebook Login with Google

Why sign up and log in

Guitar Tabs Explorer
Echo & The Bunnymen bass tabs for The disease

Bass tabs

Tuning: Standard tuning


Tabbed by: bassm99
E-mail: alanmatthews1966@yahoo.co.uk
Tuning: E, A, D, G

Bass Starts: 0:36


Intro: (Play 4 Times)

G|--------------------------------------------------------------------------|
D|--5-5-0-4-4-4-0-----------------------------------------------------------|
A|--------------------------------------------------------------------------|
E|--------------------------------------------------------------------------|


Verse: (Play 16 Times)

G|--------------------------------------------------------------------------|
D|--5-5-0-4-4-4-0-----------------------------------------------------------|
A|--------------------------------------------------------------------------|
E|--------------------------------------------------------------------------|


Bridge: (Play 4 Times)

G|--------------------------------------------------------------------------|
D|--5-5-0-4-4-4-0-----------------------------------------------------------|
A|--------------------------------------------------------------------------|
E|--------------------------------------------------------------------------|

Repeat Verse: (Play 4 Times)


Instrumental Section:

G|--------------------------------------------------------------------------|
D|--2-----------2-----2-----------------------------------------------------|
A|--------2-----------------------------------------------------------------|
E|--------------------------------------------------------------------------|


Ending: (Play 8 Times) (Fades Out)

G|--------------------------------------------------------------------------|
D|--------------------------------------------------------------------------|
A|--------------------------------------------------------------------------|
E|--333333333---------------------------------------------------------------|


NOTE: This song originally has no bass apart from the ending. This is my
interpretation of how the bass might be played. The ending is tabbed as it
appears in the song.

The Disease bass tab

Echo & The Bunnymen bass tabs for The disease "The Disease" from the album "Heaven Up Here" (1981).

Written by Sergeant/McCulloch/Pattinson/de Freitas.

Almost there ...

Sign in to get your own page with links to favourite songs and more. You are just one click away...

Login with Facebook Login with Google