Log in

One click and you are in

Login with Facebook Login with Google

Why sign up and log in

Guitar Tabs Explorer
Echo & The Bunnymen bass tabs for Seven seas

Bass tabs

Intro/Verse enter at :15:

G|-----12--10--9----|
D|-10------------10-|
A|------------------|
E|------------------|

G|-----12--10--9----| x14
D|--10-----------10-|
A|------------------|
E|------------------|

G|-----12--10--9----|
D|--10--------------|
A|------------------|
E|------------------|

Chorus:

G|-----------------|-----------------|-----------------|-----------------| x2
D|-----------------|-----------------|-----------------|-----------------|
A|-----------------|-3r----------3r--|---------------5-|-3r--------------|
E|-3r------------3-|-----------------|-3r-------3r-----|-----------------|


Verse:

G|-----12--10--9----|
D|-10------------10-|
A|------------------|
E|------------------|

G|-----12--10--9----| x14
D|--10-----------10-|
A|------------------|
E|------------------|

G|-----12--10--9----|
D|--10--------------|
A|------------------|
E|------------------|


Chorus:

G|-----------------|-----------------|-----------------|-----------------|
D|-----------------|-----------------|-----------------|-----------------|
A|-----------------|-3r----------3r--|---------------5-|-3r--------------|
E|-3r------------3-|-----------------|-3r--------------|-----------------|

G|-----------------|-----------------|-----------------|-----------------|
D|-----------------|-----------------|-----------------|-----------------|
A|-----------------|-3r------------3-|---------------5-|-3r--------------|
E|-3r------------3-|-----------------|-3r--------------|-----------------|

G|-----------------|
D|-----------------|
A|-3r--------------|
E|-----------------|


Solo:

G|-----------------|-----------------|-----------------|-----------------|
D|-3-----3-3-----3-|-3-----3-3-----3-|-3-----3-3-----3-|-3-----3-3-----3-|
A|-----------------|-----------------|-----------------|-----------------|
E|-----------------|-----------------|-----------------|-----------------|

G|-----------------|-----------------|-----------------|-----------------|
D|-2-----2-2-----2-|-2-----2-2-----2-|-2-----2-2-----2-|-2-----2-2-----2-|
A|-----------------|-----------------|-----------------|-----------------|
E|-----------------|-----------------|-----------------|-----------------|

G|-----------------|-----------------|-----------------|-----------------|
D|-3-----3-3-----3-|-3-----3-3-----3-|-3-----3-3-----3-|-3-----3-3-----3-|
A|-----------------|-----------------|-----------------|-----------------|
E|-----------------|-----------------|-----------------|-----------------|


Bridge:

G|-----------------|-----------------|-----------------|-----------------| x2
D|---------3h5-----|-3-------3h5-----|---------3h5-----|-3---------------|
A|-3---------------|-----------------|-3---------------|-----------------|
E|-----------------|-----------------|-----------------|-----------------|

G|-----12--10--9----|
D|-10------------10-|
A|------------------|
E|------------------|

G|-----12--10--9----| x6
D|--10-----------10-|
A|------------------|
E|------------------|

G|-----12--10--9----|
D|--10--------------|
A|------------------|
E|------------------|


Chorus:

G|-----------------|-----------------|-----------------|-----------------| x6
D|-----------------|-----------------|-----------------|-----------------|
A|-----------------|-3r----------3r--|---------------5-|-3r--------------|
E|-3r------------3-|-----------------|-3r--------------|-----------------|

G|-----------------|
D|-----------------|
A|-3---------------|
E|-----------------|


************************************

| h  Hammer-on
| r  Release

Almost there ...

Sign in to get your own page with links to favourite songs and more. You are just one click away...

Login with Facebook Login with Google