Log in

One click and you are in

Login with Facebook Login with Google

Why sign up and log in

Guitar Tabs Explorer
Echo & The Bunnymen bass tabs for Ripeness

Bass tabs

Tuning: Standard tuning


Tabbed by: bassm99
E-mail: alanmatthews1966@yahoo.co.uk
Tuning: E, A, D, G


Intro: (Play 4 Times)

G|--------------------------------------------------------------------------|
D|------2-3-5---------------------------------------------------------------|
A|--2---------5-------------------------------------------------------------|
E|--------------------------------------------------------------------------|


Verse: (Play 16 Times)

G|--------------------------------------------------------------------------|
D|------2-3-5---------------------------------------------------------------|
A|--2---------5-------------------------------------------------------------|
E|--------------------------------------------------------------------------|

Repeat Intro: (Play 4 Times)


Verse:

G|--------------------------------------------------------------------------|
D|------2-3-5---------------------------------------------------------------|
A|--2---------5-(x15)----2---0-2-0-2-(x1)-----------------------------------|
E|--------------------------------------------------------------------------|


Chorus: (Play 4 times)

G|--------------------------------------------------------------------------|
D|--------2-(x2)--7---------------------------------------------------------|
A|--5-0-3-----------0-3-5-(x2)----------------------------------------------|
E|--------------------------------------------------------------------------|

Repeat Intro: (Play 8 Times)


Verse:

G|--------------------------------------------------------------------------|
D|------2-3-5---------------------------------------------------------------|
A|--2---------5-(x15)----2---0-2-0-2-(x1)-----------------------------------|
E|--------------------------------------------------------------------------|

Repeat Chorus:

Repeat Intro: (Play 8 Times)


Verse:

G|--------------------------------------------------------------------------|
D|------2-3-5---------------------------------------------------------------|
A|--2---------5-(x7)-----2---0-2-0-2-(x1)-----------------------------------|
E|--------------------------------------------------------------------------|

Repeat Chorus: (Play 16 Times) (Fades Out)

Ripeness bass tab

Echo & The Bunnymen bass tabs for Ripeness "Ripeness" from the album "Porcupine" (1983).

Written by Sergeant/McCulloch/Pattinson/de Freitas.

Almost there ...

Sign in to get your own page with links to favourite songs and more. You are just one click away...

Login with Facebook Login with Google