Log in

One click and you are in

Login with Facebook Login with Google

Why sign up and log in

Guitar Tabs Explorer
Echo & The Bunnymen bass tabs for Over the wall

Over The Wall bass tab by Echo & The Bunnymen

Echo & The Bunnymen bass tabs for Over the wall

Bass tabs

MAIN RIFF

G------------------|
D------------------|
A---57--57--57--57-|
E-07--07--07--07---|
CHORUS

G--------------------------------------------------|
D--------------------------------------------------|
A--3-5--5-5-55-550-3-5--5-5-55-550-3-5--5-5-55-550-|
E-3---------------3---------------3----------------|

G-----------------------------|
D-----------------------------|
A--3-5--5-5-50----------------|
E-3-----------3-3-3-3-3-3-3-3-|

BACK TO MAIN RIFF

(3.42)

G-------------------------------|
D-------------------------------|
A-------------------------------|
E-0---------0---------0---------|

BACK TO MAIN RIFF

G---------|
D---------|
A---------|
E-0>>>>>>-| End on this.

Almost there ...

Sign in to get your own page with links to favourite songs and more. You are just one click away...

Login with Facebook Login with Google