Log in

One click and you are in

Login with Facebook Login with Google

Why sign up and log in

Guitar Tabs Explorer
Echo & The Bunnymen tabs for Ocean rain

Guitar tabs

Album: Ocean Rain

Song tabbed by Thiago Miranda de Oliveira

Corrections, comments or sugestions email me: thmoliv@hotmail.com

Intro
D,A


Verse

D,A --> these chords are played almost trough the whole song


Chorus

Em,Em,G,D * (little solo)e--3--2-------|
                         B---------0---|
                         G-------------|
                         D-------------|
                         A-------------|
                         E-------------|

e--2h3--2--0--5----2h3--2--0------------------------|
B---------------------------------------------------|
G-----------------------------2---------------------|
D---------------------------------------------------|
A---------------------------------------------------|
E---------------------------------------------------|


solo (w/ distortion)

e--------------------------------------------------|-\
B--2--3---5----7-7-7------2--3---5--10--7-7-7------|  \
G--------------------------------------------------|   \  2X
D--------------------------------------------------|   /
A--------------------------------------------------|  /
E--------------------------------------------------|-/


e------------------------------------------------------------------|
B--7-7-7-7-8--10---10--8--7---7--8--7---10---10--8--7--7--8--7-----|
G-------------/\------------------------/\-------------------------|
D--------play very fast------------play-very-fast------------------|
A------------------------------------------------------------------|
E------------------------------------------------------------------|


e--------------------------------------------------|
B--2--3---5----7-7-7------2--3---5--10--7-7/-------|
G--------------------------------------------------|
D--------------------------------------------------|
A--------------------------------------------------|
E--------------------------------------------------|


End
D,A,A*,D

    A*
e---3---|
B---2---|
G---2---|
D---2---|
A---0---|
E-------|

Other versions of Ocean Rain

Ocean rain (Ver. 2)Tabs

Almost there ...

Sign in to get your own page with links to favourite songs and more. You are just one click away...

Login with Facebook Login with Google