Log in

One click and you are in

Login with Facebook Login with Google

Why sign up and log in

Guitar Tabs Explorer
Echo & The Bunnymen bass tabs for My white devil

Bass tabs

Tuning: Standard tuning


Tabbed by: bassm99
E-mail: alanmatthews1966@yahoo.co.uk
Tuning: E, A, D, G

Bass Starts: 0:19


Intro: (Play Twice)

G|--------------------------------------------------------------------------|
D|--------------------------------------------------------------------------|
A|--5-555--222-333----------------------------------------------------------|
E|--------------------------------------------------------------------------|


Verse: (Play 8 Times)

G|--------------------------------------------------------------------------|
D|--------------------------------------------------------------------------|
A|--5-555--222-333----------------------------------------------------------|
E|--------------------------------------------------------------------------|


Chorus:

G|--------------------------------------------------------------------------|
D|-------------0-2-2-4-(x7)-------------------------------------------------|
A|--5--55--55----------------5----222-333-(x1)------------------------------|
E|--------------------------------------------------------------------------|

Repeat Verse:

Chorus: (Play 8 Times)

G|--------------------------------------------------------------------------|
D|-------------0-2-2-4------------------------------------------------------|
A|--5--55--55---------------------------------------------------------------|
E|--------------------------------------------------------------------------|


Bridge:

G|--------------------------------------------------------------------------|
D|----5-------7---5---------------------------------------------------------|
A|--5---5---5---5---5-------------------------------------------------------|
E|--------------------------------------------------------------------------|

G|--------------------------------------------------------------------------|
D|--7---5-----------7---5---------7---5-------------------------------------|
A|----5---5-(x2)--5---5---5-(x1)----5---5-(x11)-----------------------------|
E|--------------------------------------------------------------------------|

G|--------------------------------------------------------------------------|
D|--777777777777-10-10-10-10-(x8)-------------------------------------------|
A|--------------------------------------------------------------------------|
E|--------------------------------------------------------------------------|


Chorus: (Play 6 Times)

G|--------------------------------------------------------------------------|
D|-------7777------4444-----------------------------------------------------|
A|--5555------7777----------------------------------------------------------|
E|--------------------------------------------------------------------------|

Repeat Verse: (Play 10 Times)


Chorus: (Play 7 Times)

G|--------------------------------------------------------------------------|
D|-------------0-2-2-4------------------------------------------------------|
A|--5--55--55---------------------------------------------------------------|
E|--------------------------------------------------------------------------|

End:

G|--------------------------------------------------------------------------|
D|--------------------------------------------------------------------------|
A|--5-----------------------------------------------------------------------|
E|--------------------------------------------------------------------------|

My White Devil bass tab

Echo & The Bunnymen bass tabs for My white devil "My White Devil" from the album "Porcupine" (1983).

Written by Sergeant/McCulloch/Pattinson/de Freitas.

Almost there ...

Sign in to get your own page with links to favourite songs and more. You are just one click away...

Login with Facebook Login with Google