Log in

One click and you are in

Login with Facebook Login with Google

Why sign up and log in

Guitar Tabs Explorer
Echo & The Bunnymen bass tabs for Bring on the dancing horses

Bring On The Dancing Horses bass tab by Echo & The Bunnymen

Echo & The Bunnymen bass tabs for Bring on the dancing horses

Bass tabs with lyrics

Tuning: Standard (E A D G)


Intro:                   (Play This Bit x2)
G|---------------------------0-----------------------------0-|
D|-0--------0---0--------0-1-----0--------0---0--------0-1---|
A|----2--3---------2--3-------------2--3---------2--3--------|
E|-----------------------------------------------------------|

Verse 1:                  (Play This Bit x3)
G|---------------------------0-----------------------------0-|
D|-0--------0---0--------0-1-----0--------0---0--------0-1---|
A|----2--3---------2--3-------------2--3---------2--3--------|
E|-----------------------------------------------------------|

G|-------------------------------------------------------------------|
D|-------------------------------------------------------------------|
A|------------------5--5-5----------5--5--5--5---0--0--0--0----------|
E|-3--3-3---5--5-5----------3--3-3----------------------------3--3-3-|

G|--------------------------------------------------|
D|--------------------------------------------------|
A|---------5--5--5--5---0--0--0--0------------------|
E|-3--3-3---------------------------3--3-3---3--3-3-|


Verse 2:                  (Play This Bit x3)
G|---------------------------0-----------------------------0-|
D|-0--------0---0--------0-1-----0--------0---0--------0-1---|
A|----2--3---------2--3-------------2--3---------2--3--------|
E|-----------------------------------------------------------|

G|-------------------------------------------------------------------|
D|-------------------------------------------------------------------|
A|------------------5--5-5----------5--5--5--5---0--0--0--0----------|
E|-3--3-3---5--5-5----------3--3-3----------------------------3--3-3-|

G|--------------------------------------------------|
D|--------------------------------------------------|
A|---------5--5--5--5---0--0--0--0------------------|
E|-3--3-3---------------------------3--3-3---3--3-3-|

Bridge:
G|----------------------------------------------------------------|
D|----------------------------------------------------------------|
A|-5----10----5----10----5----10----5----10----5----10----5----10-|
E|----------------------------------------------------------------|


Verse 3:                  (Play This Bit x3)
G|---------------------------0-----------------------------0-|
D|-0--------0---0--------0-1-----0--------0---0--------0-1---|
A|----2--3---------2--3-------------2--3---------2--3--------|
E|-----------------------------------------------------------|

G|-------------------------------------------------------------------|
D|-------------------------------------------------------------------|
A|------------------5--5-5----------5--5--5--5---0--0--0--0----------|
E|-3--3-3---5--5-5----------3--3-3----------------------------3--3-3-|

G|--------------------------------------------------|
D|--------------------------------------------------|
A|---------5--5--5--5---0--0--0--0------------------|
E|-3--3-3---------------------------3--3-3---3--3-3-|


Outro: (Repeat Outro To Fade/End)
G|--------------------------------------------------------------------|
D|--------------------------------------------------------------------|
A|-5---------5---------5---------5---------5---------5---------5------|
E|------3---------3---------3---------3---------3---------3---------3-|


Jimmy Brown, made of stone

Charlie Clown, no way home

Bring on the dancing horses

Headless and all alone

Shiver and say the words

Of every lie you've heard


First I'm gonna make it

Then I'm gonna break it

Till it falls apart

Hating all the faking

And shaking while I'm breaking

Your brittle heart


Billy stands all alone

Sinking sand, skin and bone

Bring on the dancing horses

Wherever they may roam

Shiver and say the words

Of every lie you've heard


First I'm gonna make it

Then I'm gonna break it

Till it falls apart

Hating all the faking

And shaking while I'm breaking

Your brittle heart


Brittle heart, brittle heart

Brittle heart and my little heart goes


Jimmy Brown, made of stone

Charlie Clown, no way home

Bring on the headless horses

Wherever they may roam

Shiver and say the words

Of every lie you've heard


First I'm gonna make it

Then I'm gonna break it

Till it falls apart

Hating all the faking

And shaking while you're breaking

My brittle heart


Brittle heart, brittle heart

And our little heart goes


Bring on the new Messiah

Wherever he may roam

Bring on the new Messiah

Wherever he may roam


Bring on the new Messiah

Wherever he may roam

Bring on the new Messiah

Wherever he may roam

Almost there ...

Sign in to get your own page with links to favourite songs and more. You are just one click away...

Login with Facebook Login with Google