Log in

One click and you are in

Login with Facebook Login with Google

Why sign up and log in

Guitar Tabs Explorer
Echo & The Bunnymen bass tabs for All because of you days

All Because Of You Days bass tab by Echo & The Bunnymen

Echo & The Bunnymen bass tabs for All because of you days

Bass tabs

Tuning: E A D G

 Verse:

G|-------------------------------------------------------------------|\
D|-------------------------------------------------------------------| |
A|-2-2-2-2-2-2-2-2-2-2-2-2-2-2-2-2-----------------------------------| |
E|---------------------------------2-2-2-2-2-2-2-2-2-2-2-2-2-2-2-2-2-| |
                                    >x2
G|-------------------------------------------------------------------| |
D|-------------------------------------------------------------------| |
A|-2-2-2-2-2-2-2-2-2-2-2-2-2-2-2-2-4-4-4-4-4-4-4-4-4-4-4-4-4-4-4-4-4-| |
E|-------------------------------------------------------------------|/

 Chorus:

G|--------------------------------------------------------------------|
D|--------------------------------------------------------------------|
A|-2-2-2-2-2-2-2-2--4-4-4-4-4-4-4-4--2-2-2-2-2-2-2-2--4-4-4-4-4-4-4-4-|
E|--------------------------------------------------------------------|

G|------------------------------------------------------------------|
D|--------3-2-------------------------------------------------------|
A|-------------4----2-2-2-2-2-2-2-2/9-9-9-9-9-9-9-9-9-9-9-9-9-9-9-9-|
E|-5-5-5------------------------------------------------------------|

 Verse x 2

 Chorus x 1

Then play this:

 Break 1:

G|-------------------------------------------------------------------|\
D|-------------------------------------------------------------------| |
A|-2-2-2-2-2-2-2-2-2-2-2-2-2-2-2-2-4-4-4-4-4-4-4-4-4-4-4-4-4-4-4-4/9-| |
E|-------------------------------------------------------------------| |
        								> x2
G|---------------------------------------------------------------|   |
D|---------------------------------------------------------------|   |
A|-9-9-9-9-9-9-9-9-9-9-9-9-9-9-9\2-2-2-2-2-2-2-2-2-2-2-2-2-2-2-2-|   |
E|---------------------------------------------------------------|  /

 Bridge:

G|--------------------------------------------------------------------|\
D|--------------------------------------------------------------------| |x2
A|-2--------------------------------4---------------------------------| |
E|--------------------------------------------------------------------|/

G|-------------------------------------------------------------------|\
D|-------------------------------------------------------------------| |x2
A|-2-2-2-2-2-2-2-2-2-2-2-2-2-2-2-2-4-4-4-4-4-4-4-4-4-4-4-4-4-4-4-4-4-| |
E|-------------------------------------------------------------------|/

 Verse x 2

G|---------------------------------|
D|---------------------------------|
A|---------------------------------|
E|-2-2-2-2-2-2-2-2-2-2-2-2-2-2-2-2-|

 Chorus x 2

 Break 2:

G|-------------------------------------------------------------------|\
D|-------------------------------------------------------------------| |
A|-2-2-2-2-2-2-2-2-2-2-2-2-2-2-2-2-4-4-4-4-4-4-4-4-4-4-4-4-4-4-4-4/9-| |
E|-------------------------------------------------------------------| |
        								>x9
G|-------------------------------|                   |
D|-------------------------------|                   |
A|-9-9-9-9-9-9-9-9-9-9-9-9-9-9-9-|                   |
E|-------------------------------|				   /

 End:

G|-------------------------------|
D|-------------------------------|
A|-2-----------------------------|
E|-------------------------------|

Almost there ...

Sign in to get your own page with links to favourite songs and more. You are just one click away...

Login with Facebook Login with Google