Log in

One click and you are in

Login with Facebook Login with Google

Why sign up and log in

Guitar Tabs Explorer
Earthsuit bass tabs for Sky flashings

Bass tabs

What's here is about 98% accurate. There are a handful of notes that I
didn't tab out because I simply got tired of listening to this song over
and over again, but this will get you where you're going.


Intro and verses
(Don't play the last note when going into the pre-chorus)

G|------16---------16-----16-----15--------15-----15----------------|
D|------------------------------------------------------------------|
A|---------------------------14-----14------------------------------|
E|---16----16---------16----------------14-----14-------------------|
B|--------------16--------------------------------------------------|
Pre-chorus

    "It takes a miracle..."
G|------------------------------------------------------------------|
D|------------------------------------------------------------------|
A|------------------------------------------------------------------|
E|-----4----------------2--------4--2-----/999999999----------------|
B|--2----------------------4--2--------4----------------------------|


Chorus

        4X
G|--------------------------------|---------------------------------|
D|--6-4-----------------4------4--|---------------------------------|
A|------6--------4----4----4-6----|---------------------------------|
E|--------7--4-7----7-------------|---44-4-4--33-3--44-4-4--33-3----|
B|--------------------------------|---------------------------------|

G|------------------------------------------------------------------|
D|------------------------------------------------------------------|
A|------------------------------------------------------------------|
E|---/11-11--11--11--10-10--10--------------------------------------|
B|------------------------------------------------------------------|


Bridge (drum break) and
some of the choruses
near the end       The very end of the song
G|--------------------|---------------------------------------------|
D|--------------------|---------------------------------------------|
A|-----------2-----2--|---------------------------------------------|
E|--4-----4-----2-----|---4-----4--------44-4-4--33-3--44-4-4-------|
B|-----4--------------|------4-----0--0-----------------------------|

G|------------------------------------------------------------------|
D|------------------------------------------------------------------|
A|------------------------------------------------------------------|
E|---33-3--44-4-4--33-3--44-4---------------------------------------|

ⓘ Bass guitar tab for 'Sky Flashings' by Earthsuit, a progressive rock artist. Earthsuit was born in 1998.

Almost there ...

Sign in to get your own page with links to favourite songs and more. You are just one click away...

Login with Facebook Login with Google