Log in

One click and you are in

Login with Facebook Login with Google

Why sign up and log in

Guitar Tabs Explorer
Earth Wind & Fire bass tabs for Serpentine fire

Serpentine Fire bass tab by Earth Wind & Fire

Earth Wind & Fire bass tabs for Serpentine fire

Bass tabs

-----------------------------------------------------------------------------
          Serpentine Fire - Earth, Wind and Fire
-----------------------------------------------------------------------------

Tabbed By : Ints92
e-mail: indrek92@gmail.com

Tabbed it by ear, so I can't guarantee 100% accuracy, tabbed off the album version.
Tuning: standard

All the pulloffs are done by popping.


Intro

G|-----------------------------------------------------------------------|
D|--------------5---------5----------------7-----------------------------|
A|--5----7----------------------5----7--------7--------------------------|
E|-----------------------------------------------5-----------------------|

G|-----------------------------------------------------------------------|
D|-------------5-----5-5-5-5-5-5-5-5-5-5-5-5-----------------------------|
A|--5----7---------------------------------------------------------------|
E|-----------------------------------------------------------------------|
Part 1

G|-----5-------------------------------5--------5p3--7p5-----------------|
D|-----------------------------------------------------------------------|
A|--3------------2-3-2-3-2-3-------3-------------------------------------| x2
E|-------0-0------------------0-----------0-0----------------------------|

G|-----5-------------------------------5--------5p3--7p5-----------------|
D|-----------------------------------------------------------------------|
A|--3------------2-3-----2-3-------3-------------------------------------|
E|-------0-0------------------0-----------0-0----------------------------|

G|-----5-------------------------------5-------------7p5--5p3------------|
D|-----------------------------------------------------------------------|
A|--3-------------2-3-2-3-2-3-------3------------------------------------|
E|-------0-0-0-----------------0----------0-0----------------------------|

G|-----5-------------------------------5--------5p3--7p5----------12~----|
B|-----------------------------------------------------------------------|
A|--3------------2-3-2-3-2-3-------3-------------------------------------|
E|-------0-0------------------0-----------0-0----------------------------|

G|-----5-------------------------------5----------------5----------------|
D|-----------------------------------------------------------------------|
A|--3------------2-3-----3-2------3----------------3---------------------|
E|-------0-0-0----------------------------0-0-----3----------------------|

G|-----5-----------------------------5-----------7p5--5p3--------12~-----|
D|-----------------------------------------------------------------------|
A|-0-3-----------2-3-2-3-2-3------3--------------------------------------|
E|-------0-0------------------0----------0-0-----------------------------|

G|-----5-------------------------------5--------7p5----5-----------------|
D|-----------------------------------------------------------------------|
A|--3------------2-3-----2-3-------3-------------------------------------|
E|-------0-0------------------0-----------0-0----------------------------|

G|-----5-------------------------------5--------7p5--7p5-----------------|
D|-----------------------------------------------------------------------|
A|-0-3------------2-3-----2-3-------3------------------------------------|
E|-------0-0------------------0-----------0-0----------------------------|

G|-----5-------------------------------5--------7p5--5p3-----------------|
D|-----------------------------------------------------------------------|
A|--3------------2-3-----5-3-------3-------------------------------------|
E|-------0-0------------------0-----------0-0----------------------------|

Part 2

G|------------------------------------------------------5--5/7--5--------------------|
D|---2-2-3-4-5----------5/7--5----------------2-2-3-4-5--------------5/7--5----------|
A|-------------3------------------------3--------------------------3---------------3-|
E|---------------------------------1/3---------------------------------------1/3-----|

Part 1

G|-----5-------------------------------5------------7p5--------/12~------|
D|-----------------------------------------------------------------------|
A|--3------------2-3---------------3-------------------------------------|
E|-------0-0------------------0-----------0-0----------------------------|

G|-----5-----------------------------5-----------7p5--5p3----------------|
D|-----------------------------------------------------------------------|
A|--3------------2-3-2-3-2-3------3--------------------------------------|
E|-------0-0-0----------------0----------0-0-----------------------------|

G|-----5-----------------------------5----------7p5------------15/-------|
D|-----------------------------------------------------------------------|
A|--3------------2-3-2-3-2-3------3--------------------------------------|
E|--------0-0-----------------0----------0-0-----------------------------|

G|-----5-----------------------------5----------7p5--5p3-----------------|
D|-----------------------------------------------------------------------|
A|--3------------2-3-----x-3------3--------------------------------------|
E|--------0-0----------------------------0-0-----------------------------|

G|-----5-----------------------------5------------7p5--------------------|
D|-----------------------------------------------------------------------|
A|--3------------x-3-----x-3------3--------------------------------------|
E|--------0-0----------------------------0-0-----------------------------|

G|------5----------------------------5-------------------------5--3-------|
D|------------------------------------------------------------------------|
A|-0-3-------------2-3-----5-3----3-------------------------3-------------|
E|---------0-0-0-------------------------0-0-------------------------0----|

G|-----5------------7p5---3----------5-----------------------------------|
D|-----------------------------------------------------------------------|
A|--3-----------------------------3---------------------3----------------|
E|--------0-0---------------------------0-0------0--3--------------------|

Part 2

G|------------5----------------------------------------------------------|
D|--2-2-3-4-5--------------5/7--5----------------------------------------|
A|----------------3----------------------------3-------------------------|
E|---------------------------------------1/3-----------------------------|

G|------------5----5/7--5------------------------------------------------|
D|--2-2-3-4-5----------------0-5/7--5------------------------------------|
A|----------------------------------------------3------------------------|
E|----------------------------------------1/3----------------------------|

Small break, then Part 1

G|-----5-----------------------------5--------7p5--5p3-------------------|
D|-----------------------------------------------------------------------|
A|--3-------------2-3------2-3----3--------------------------------------|
E|--------0-0-0-------------------------0-0------------------------------|

G|-----5-----------------------------5--------------------------15/------|
D|-----------------------------------------------------------------------|
A|--3------------2-3------5-3-----3--------------------3-----------------|
E|--------0-0---------------------------0-0-----0--3---------------------|

G|-----5-----------------------------5----------7p5--5p3------12~/-------|
D|-----------------------------------------------------------------------|
A|--3------------2-3-2-3-2-3------3--------------------------------------|
E|--------0-0-----------------0---------0-0------------------------------|

G|-----5------------------------------5----------7p5--5p3----------------|
D|---------------------------------------5-5---------------5-------------|
A|--3------------2-3-2-3-2-3-------3-------------------------------------|
E|--------0-0------------------0-----------------------------------------|

G|-----5------------------------------5----------5p3--7p5--0-------------|
D|-----------------------------------------------------------------------|
A|--3------------2-3-2-3-2-3-------3-------------------------------------|
E|--------3-3------------------0---------0-0-----------------------------|

G|-----5------------------------------5----------------------------------|
D|-----------------------------------------------------------------------|
A|--3------------2-3-2-3-2-3-------3---------------------3---------------|
E|--------0-0------------------0---------0-0-------0--3------------------|

G|-----5-----------------------------5---------5p3--7p5------------------|
D|-----------------------------------------------------------------------|
A|--3------------2-3-2-3-2-3------3-----------------------5--------------|
E|--------3-3-----------------0---------0-0------------------------------|

                  fades away
G|-----5-----------------------------------------------------------------|
D|-----------------------------------5-----------------------------------|
A|--3------------2-3-2-3-2-3------3------------------3-------------------|
E|--------0-0-----------------0---------0-0-----0-3----------------------|


| / slide up
| \ slide down
| h hammer-on
| p pull-off
| ~ vibrato
| + harmonic
| x Mute note

Almost there ...

Sign in to get your own page with links to favourite songs and more. You are just one click away...

Login with Facebook Login with Google