Log in

One click and you are in

Login with Facebook Login with Google

Why sign up and log in

Guitar Tabs Explorer
Earth Wind & Fire bass tabs for September

Bass tabs with lyrics

0:12 Intro
G|-----12-14-----12-14-----12-14-----12-14-----12-14-----12-14-----12-14---|
D|-------------------------------------------------------------------------|
A|-0-0-------0-0-------0-0-------0-0-------0-0-------0-0-------0-0-------0-|
E|-------------------------------------------------------------------------|

0:19 Do you remember the 21st night of September? Love was changing the minds of pretenders
G|-----------|-----------------------|-------------------------------------|
D|-----------|-----------------------|-------------------------------------|
A|-5-5-4-2-2-|-4-----------5-5-4-2-2-|-4-------0-2-5-5-5-4-2-2-------------|
E|-----------|---4-0-2-x-x-----------|---4-0-2-----------------------------|

0:29 While chasing the clouds away            Our hearts were ringing in the key
G|-----------------12-14-----12-14-----12-14--------|----------------------|
D|---2-3-4------------------------------------------|----------------------|
A|-4-------4-2-0-0-------0-0-------0-0-------0------|-5-5-4-2--------------|
E|---------------------------------------------/13\-|----------------------|

0:37 That our souls were singing as we danced in the night, Remember how the stars stole the night away
G|------------------------------------|-----------------------------12-14-----12-14-----12-14-----|
D|------------------------------------|---------------2-3-4---------------------------------------|
A|-4-------0-2-5-5-5-4-2-2--4-------0-|-5-5-5-4-2-2-4-------4-2-0-0-------0-0-------0-0-------0-1-|
E|---4-0-2--------------------4-0-2---|-----------------------------------------------------------|

0:50 Ba de ya say do you remember, Ba de ya dancing in September, Ba de ya never was a cloudy day
G|-----------------------|-------------------|---------------------------------12-14---12-14------|
D|---4-2-----------------|-4-2---------------|----4-2---------------------------------------------|
A|-2-----2-3-4-------0-1-|-----2-3-4-------0-|-2-2----0-2-3-4-----------0-0~-0-------0------0-0-0-|
E|-------------4-0-2-----|-----------4-0-2---|----------------4-0-2-4-2---------------------------|

1:06 Ba du, Ba du, Ba du, Ba du Ba du, Ba du, Ba du wa du wa
G|-----------------------------|-----------------------------|
D|---------------2-3-4-------0-|---------------2-3-4-------0-|
A|-5-5-5-4-2-2-4-------4-0-2---|-5-5-5-4-2-2-4-------4-0-2---|
E|-----------------------------|-----------------------------|

1:13 06 Ba du, Ba du, Ba du, Ba du Ba du, Ba du, Ba du wa du wa
G|-------------------------------12-14-----12-14-----12-14---|
D|---------------2-3-4-4-------------------------------------|
A|-5-5-5-4-2-2-4---------4-2-0-0-------0-0-------0-0-------0-|
E|-----------------------------------------------------------|

1:21 My thoughts are with you, holding hands with your heart to see you, Only blue talk and love
G|---------------------|---------------------|
D|---------------------|---------------------|
A|-5-5-4-2-2-4-------0-|-5-5-4-2-2-4-------0-|
E|-------------4-0-2---|-------------4-0-2---|

1:28 Remember how we knew love was here to stay
G|-------------------------|-----------------12-14-----12-14-----12-14--------|
D|-------------2-3-4-------|---2-3-4------------------------------------------|
A|-5-5-4-2-2-4-------0-4-2-|-4-------4-2-0-0-------0-0-------0-0-------0------|
E|-------------------------|---------------------------------------------/13\-|

1:36 Now December found the love that we shared in September. Only blue talk and love,
G|-------------------------|-------------------------|
D|-------------------------|-------------------------|
A|-5-5-4-2-2-4-------0-2-4-|-5-5-4-2-2-4-------0-0-4-|
E|-------------4-0-2-------|-------------4-0-2-------|

1:44 Remember the true love we share today
G|------------------------|-----12-14-----12-14-----12-14----|
D|-------------2-3-4------|----------------------------------|
A|-5-5-4-2-2-4--------4-2-|-0-0-------0-0-------0-0------0-1-|
E|------------------------|----------------------------------|

1:51 Ba de ya say do you remember, Ba de ya dancing in September, Ba de ya never was a cloudy day
G|-----------------------|-------------------|--------------------------------12-14----12-14-----12-14-----|
D|---4-2-----------------|-4-2---------------|----4-2---------2-3-4-4--------------------------------------|
A|-2-----2-3-4-------0-1-|-----2-3-4-------0-|-2-2----0-2-3-4---------4-2-0-0------0-0-------0-0-------0-1-|
E|-------------4-0-2-----|-----------4-0-2---|-------------------------------------------------------------|

2:06 Ba de ya say do you remember, Ba de ya dancing in September, Ba de ya golden dreams were shiny days
G|-----------------------|-------------------|--------------------------------12-14-----12-14-----12-14-----|
D|---4-2-----------------|-4-2---------------|----4-2---------2-3-4-4---------------------------------------|
A|-2-----2-3-4-------0-1-|-----2-3-4-------0-|-2-2----0-2-3-4---------4-2-0-0-------0-0-------0-0-------0-1-|
E|-------------4-0-2-----|-----------4-0-2---|--------------------------------------------------------------|

2:21 The bells were ringing, our love was singing, do you remember every cloudy day yeow
G|-------------------------|-------------------------|-------------------------|-----12-14-----12-14-----12-14-|
D|---4-2-------------------|---4-2-------------------|---4-2-------------------|-------------------------------|
A|-2-----0-2-3-4-------0-1-|-2-----0-2-3-4-------0-1-|-2-----0-2-3-4-------0-1-|-0-0-------0-0-------0-0----0-1|
E|---------------4-0-2-----|---------------4-0-2-----|---------------4-0-2-----|-------------------------------|

2:37 Ba de ya say do you remember, Ba de ya dancing in September, Ba de ya never was a cloudy day
G|-----------------------|-------------------|--------------------------------12-14----12-14-----12-14-----|
D|---4-2-----------------|-4-2---------------|----4-2---------2-3-4-4--------------------------------------|
A|-2-----2-3-4-------0-1-|-----2-3-4-------0-|-2-2----0-2-3-4---------4-2-0-0------0-0-------0-0-------0-1-|
E|-------------4-0-2-----|-----------4-0-2---|-------------------------------------------------------------|

2:52 Ba de ya say do you remember, Ba de ya dancing in September, Ba de ya golden dreams were shiny days
G|-----------------------|-------------------|--------------------------------12-14-----12-14-----12-14-----|
D|---4-2-----------------|-4-2---------------|----4-2---------2-3-4-4---------------------------------------|
A|-2-----2-3-4-------0-1-|-----2-3-4-------0-|-2-2----0-2-3-4---------4-2-0-0-------0-0-------0-0-------0-1-|
E|-------------4-0-2-----|-----------4-0-2---|--------------------------------------------------------------|

3:07 Ba de ya,         Ba de ya
G|-----------------------|-------------------|--------------------------------12-14-----12-14-----12-14-----|
D|---4-2-----------------|-4-2---------------|----4-2---------2-3-4-4---------------------------------------|
A|-2-----2-3-4-------0-1-|-----2-3-4-------0-|-2-2----0-2-3-4---------4-2-0-0-------0-0-------0-0-------0-1-|
E|-------------4-0-2-----|-----------4-0-2---|--------------------------------------------------------------|

3:22 Ba de ya            Ba de ya
G|-----------------------|-------------------|--------------------------------12-14-----12-14-----12-14-----|
D|---4-2-----------------|-4-2---------------|----4-2---------2-3-4-4---------------------------------------|
A|-2-----2-3-4-------0-1-|-----2-3-4-------0-|-2-2----0-2-3-4---------4-2-0-0-------0-0-------0-0-------0-1-|
E|-------------4-0-2-----|-----------4-0-2---|--------------------------------------------------------------|

Almost there ...

Sign in to get your own page with links to favourite songs and more. You are just one click away...

Login with Facebook Login with Google