Log in

One click and you are in

Login with Facebook Login with Google

Why sign up and log in

Guitar Tabs Explorer
Earth Wind & Fire bass tabs for Magic mind

Bass tabs

Bass Player: Verdine White


Intro (0:00-0:10)
G |------------|-------|-------------|-------|
D |------------|-------|-------------|-------|
A |-0--0--0--0-|-0-0-0-|-0-0--0--0-0-|-0-0-0-|
E |------------|-------|-------------|-------|
Verse/Chorus (0:11-1:11)
G |------------|------------|------------|------------|
D |------------|------------|------------|------------|
A |-3-5-3-5--3-|-3-5-3-5--3-|-3-5-3-5--3-|-3-5-3-5--3-|
E |------------|------------|------------|------------|

G |------------|------------|------------|------------|
D |------------|------------|------------|------------|
A |-3-5-3-5--3-|-3-5-3-5--3-|-3-5-3-5--3-|-3-5-3-5--3-|
E |------------|------------|------------|------------|

G |------------|------------|------------|------------|
D |------------|------------|------------|------------|
A |-3-5-3-5--3-|-3-5-3-5--3-|-3-5-3-5--3-|-3-5-3-5--3-|
E |------------|------------|------------|------------|

G |------------|------------|------------|------------|
D |------------|------------|------------|------------|
A |-3-5-3-5--3-|-3-5-3-5--3-|-3-5-3-5--3-|-3-5-3-5--3-|
E |------------|------------|------------|------------|

G |------------|------------|------------|------------|
D |------------|------------|------------|------------|
A |-3-5-3-5--3-|-3-5-3-5--3-|-3-5-3-5--3-|-3-5-3-5--3-|
E |------------|------------|------------|------------|

G |------------|------------|------------|------------|
D |------------|------------|------------|------------|
A |-3-5-3-5--3-|-3-5-3-5--3-|-3-5-3-5--3-|-3-5-3-5--3-|
E |------------|------------|------------|------------|

G |------------|------------|------------|------------|
D |------------|------------|------------|------------|
A |-3-5-3-5--3-|-3-5-3-5--3-|-3-5-3-5--3-|-3-5-3-5--3-|
E |------------|------------|------------|------------|

G |------------|------------|------------|------------|
D |------------|------------|------------|------------|
A |-3-5-3-5--3-|-3-5-3-5--3-|-3-5-3-5--3-|-3-5-3-5--3-|
E |------------|------------|------------|------------|

Break (1:12-1:15)
G |---------|
D |---------|
A |-0--0--0-|
E |---------|


Verse/Chorus
G |------------|------------|------------|------------|
D |------------|------------|------------|------------|
A |-3-5-3-5--3-|-3-5-3-5--3-|-3-5-3-5--3-|-3-5-3-5--3-|
E |------------|------------|------------|------------|

G |------------|------------|------------|------------|
D |------------|------------|------------|------------|
A |-3-5-3-5--3-|-3-5-3-5--3-|-3-5-3-5--3-|-3-5-3-5--3-|
E |------------|------------|------------|------------|

G |------------|------------|------------|------------|
D |------------|------------|------------|------------|
A |-3-5-3-5--3-|-3-5-3-5--3-|-3-5-3-5--3-|-3-5-3-5--3-|
E |------------|------------|------------|------------|


Break 2 (1:39-1:57)
G |-----------------|-----------------|-----------------|-----------------|
D |-----------------|-----------------|-----------------|-----------------|
A |-----------------|-----------------|-----------------|-----------------|
E |-1-2-3-4-5-6-7-8-|-1-2-3-4-5-6-7-8-|-1-2-3-4-5-6-7-8-|-1-2-3-4-5-6-7~--|

G |-----------|
D |-----------|
A |-----------|
E |-6-5--4--3-|


Verse/Chorus
G |------------|------------|------------|------------|
D |------------|------------|------------|------------|
A |-3-5-3-5--3-|-3-5-3-5--3-|-3-5-3-5--3-|-3-5-3-5--3-|
E |------------|------------|------------|------------|

G |------------|------------|------------|------------|
D |------------|------------|------------|------------|
A |-3-5-3-5--3-|-3-5-3-5--3-|-3-5-3-5--3-|-3-5-3-5--3-|
E |------------|------------|------------|------------|

G |------------|------------|------------|------------|
D |------------|------------|------------|------------|
A |-3-5-3-5--3-|-3-5-3-5--3-|-3-5-3-5--3-|-3-5-3-5--3-|
E |------------|------------|------------|------------|

G |------------|------------|------------|------------|
D |------------|------------|------------|------------|
A |-3-5-3-5--3-|-3-5-3-5--3-|-3-5-3-5--3-|-3-5-3-5--3-|
E |------------|------------|------------|------------|

G |------------|------------|------------|------------|
D |------------|------------|------------|------------|
A |-3-5-3-5--3-|-3-5-3-5--3-|-3-5-3-5--3-|-3-5-3-5--3-|
E |------------|------------|------------|------------|

G |------------|------------|------------|------------|
D |------------|------------|------------|------------|
A |-3-5-3-5--3-|-3-5-3-5--3-|-3-5-3-5--3-|-3-5-3-5--3-|
E |------------|------------|------------|------------|

G |------------|------------|------------|------------|
D |------------|------------|------------|------------|
A |-3-5-3-5--3-|-3-5-3-5--3-|-3-5-3-5--3-|-3-5-3-5--3-|
E |------------|------------|------------|------------|

G |------------|------------|------------|------------|
D |------------|------------|------------|------------|
A |-3-5-3-5--3-|-3-5-3-5--3-|-3-5-3-5--3-|-3-5-3-5--3-|
E |------------|------------|------------|------------|

Rest (2:58-3:12)


Outro (3:13-Fade)
G |------------|------------|------------|------------|
D |------------|------------|------------|------------|
A |-3-5-3-5--3-|-3-5-3-5--3-|-3-5-3-5--3-|-3-5-3-5--3-|
E |------------|------------|------------|------------|

Almost there ...

Sign in to get your own page with links to favourite songs and more. You are just one click away...

Login with Facebook Login with Google