Guitar Tabs Explorer
Earth guitar tabs for Miami morning coming down ii shine

Miami Morning Coming Down Ii Shine tab


Be the first to rate

Miami Morning Coming Down Ii Shine tab by Earth

Guitar tabs with lyrics

Print
stretched out over 8 minutes. AND IT'S AWESOME.




 Album: The Bees Made Honey In the Lion's Skull

Tab by Fiishes


                   CAPO: 4


                  Main Riff:


e|--------------------------------------------|
B|--------------------------3-----------------|
G|---2----------------------------2-----------|
D|---------0----------------------------0-----|
A|---------------0h2--------------------------|
E|--------------------------------------------|

Repeat that like a billion times until this part comes in at 1:38 and 2:56:

e|-------------------------------|
B|---3-------1---0---------------|
G|--------------------0-----2----|
D|-------------------------------|
A|-------------------------------|
E|-------------------------------|

After that gets played the second time this riff comes in at 3:15:

e|----------------------------------|
B|---3-------1-------1/3\1----------|
G|----------------------------------|
D|----------------------------0-----|
A|----------------------------------|
E|----------------------------------|

That goes on for a bit until the second guitar comes in with this at 4:40:

e|------------------------------------------|
B|----3----1-------0h1--0-------------------|
G|--------------------------2--------0h2----|
D|------------------------------------------|
A|------------------------------------------|
E|------------------------------------------|

And that repeats until the end. That's pretty much the entire song.
The entire 8 minute long song. God I love this band.

Comment this song and these guitar tabs

Do you have corrections, comments on the guitar tabs, thoughts about the song or a message to the author? Write them below.