Log in

One click and you are in

Login with Facebook Login with Google

Why sign up and log in

Guitar Tabs Explorer
Early Eyes bass tabs for Waste of time

Bass tabs

Tuning: Standard (E A D G)

GIntro:

G|---------------------------------------------------------------------------|
D|------------------------------------------------3h5-3----------------------|
A|------------1------------3p1------------1----3h5-----5-3-------------------|
E|-1-3-1-3-1-3----1-3-1-3-1----1-3-1-3-1-3--3h6------------6-----------------|
G|---------------------------------------------------------------------------|
D|------------------------------------------------3h5-3------------------3---|
A|------------1------------3p1------------1----3h5-----5-3----------3h5---3--|
E|-1-3-1-3-1-3----1-3-1-3-1----1-3-1-3-1-3--3h6------------6--1/3h6----------|


Verse 1:x4

G|---------------------------------------------------------------------------|
D|---5-----5----5----5---------------------------3---------------------------|
A|-6---6-6---5-5--5-5-5----------------------3-5---3-6-----------------------|
E|---------------------3--6-3-3--6-3---1/3h6---------------------------------|

G|---------------------------------------------------------------------------|
D|---5-----5----5----5-------------------------------------------------------|
A|-6---6-6---5-5--5-5-5-------------3------------3---------------------------|
E|---------------------3--6-3-3--6-3---6--3-1/3h6----------------------------|


Chorus:x2

G|---------------------3-----------------------------------------------------|
D|-----5------------3h5--3h5---3h5p3-----------------------------------------|
A|-6-6---6--6-5-5-5-----5-----------5p3-3------------------------------------|
E|-------------------------------------6-------------------------------------|

G|---------------------------------------------------------------------------|
D|-----5------------3h5-5-3h5--5-3h5p3---------------------------------------|
A|-6-6---6--6-5-5-5------5------5-----5p3-3----------------------------------|
E|-----------------------------------------6---------------------------------|

Bridge:x2
G|---------------------------------------------------------------------------|
D|------------------------------------------------3h5-3----------------------|
A|------------1------------3p1------------1----3h5-----5-3-------------------|
E|-1-3-1-3-1-3----1-3-1-3-1----1-3-1-3-1-3--3h6------------6-----------------|

G|---------------------------------------------------------------------------|
D|------------------------------------------------3h5-3------------------3---|
A|------------1------------3p1------------1----3h5-----5-3----------3h5---3--|
E|-1-3-1-3-1-3----1-3-1-3-1----1-3-1-3-1-3--3h6------------6--1/3h6----------|


Verse 2:

G|---------------------------------------------------------------------------|
D|---5-----5----5----5---------------------------3---------------------------|
A|-6---6-6---5-5--5-5-5----------------------3-5---3-6-----------------------|
E|---------------------3--6-3-3--6-3---1/3h6---------------------------------|

G|---------------------------------------------------------------------------|
D|---5-----5----5----5-------------------------------------------------------|
A|-6---6-6---5-5--5-5-5-------------3------------3---------------------------|
E|---------------------3--6-3-3--6-3---6--3-1/3h6----------------------------|x2

G|---------------------------------------------------------------------------|
D|---5-----5----5----5---------------------------3---------------------------|
A|-6---6-6---5-5--5-5-5----------------------3-5---3-6-----------------------|
E|---------------------3--6-3-3--6-3---1/3h6---------------------------------|

G|------------------------------------3--5-3---------------------------------|
D|---5-----5----5----5---------3--3--5--5---5-3------------------------------|
A|-6---6-6---5-5--5-5-5-------5--5-------------5-----------------------------|
E|---------------------3--6-3------------------------------------------------|

G|---------------------------------------------------------------------------|
D|---5-----5----5----5---------------------------3---------------------------|
A|-6---6-6---5-5--5-5-5----------------------3-5---3-6-----------------------|
E|---------------------3--6-3-3--6-3---1/3h6---------------------------------|

G|---------------------------------------------------------------------------|
D|---5-----5----5----5-------------------------------------------------------|
A|-6---6-6---5-5--5-5-5-------------3------------3---------------------------|
E|---------------------3--6-3-3--6-3---6--3-1/3h6----------------------------|


Chorus:

G|---------------------3-----------------------------------------------------|
D|-----5------------3h5--3h5---3h5p3-----------------------------------------|
A|-6-6---6--6-5-5-5-----5-----------5p3-3------------------------------------|
E|-------------------------------------6-------------------------------------|

G|---------------------------------------------------------------------------|
D|-----5------------3h5-5-3h5--5-3h5p3---------------------------------------|
A|-6-6---6--6-5-5-5------5------5-----5p3-3----------------------------------|
E|-----------------------------------------6---------------------------------|


Bridge:

G|---------------------------------------------------------------------------|
D|------------------------------------------------3h5-3----------------------|
A|------------1------------3p1------------1----3h5-----5-3-------------------|
E|-1-3-1-3-1-3----1-3-1-3-1----1-3-1-3-1-3--3h6------------6-----------------|

G|---------------------------------------------------------------------------|
D|------------------------------------------------3h5-3------------------3---|
A|------------1------------3p1------------1----3h5-----5-3----------3h5---3--|
E|-1-3-1-3-1-3----1-3-1-3-1----1-3-1-3-1-3--3h6------------6--1/3h6----------|


Chorus:

G|---------------------3-----------------------------------------------------|
D|-----5------------3h5--3h5---3h5p3-----------------------------------------|
A|-6-6---6--6-5-5-5-----5-----------5p3-3------------------------------------|
E|-------------------------------------6-------------------------------------|

G|---------------------------------------------------------------------------|
D|-----5------------3h5-5-3h5--5-3h5p3---------------------------------------|
A|-6-6---6--6-5-5-5------5------5-----5p3-3----------------------------------|
E|-----------------------------------------6---------------------------------|


Outro:

G|---------------------------------------------------------------------------|
D|------------------------------------------------3h5-3----------------------|
A|------------1------------3p1------------1----3h5-----5-3-------------------|
E|-1-3-1-3-1-3----1-3-1-3-1----1-3-1-3-1-3--3h6------------6-----------------|

G|---------------------------------------------------------------------------|
D|------------------------------------------------3h5-3------------------3---|
A|------------1------------3p1------------1----3h5-----5-3----------3h5---3--|
E|-1-3-1-3-1-3----1-3-1-3-1----1-3-1-3-1-3--3h6------------6--1/3h6----------|


************************************

| h Hammer-on
| p Pull-off
| / Slide up

************************************

Almost there ...

Sign in to get your own page with links to favourite songs and more. You are just one click away...

Login with Facebook Login with Google