Guitar Tabs Explorer
Eagles Of Death Metal bass tabs for Skin-tight boogie

Skin-tight Boogie bass tab


Be the first to rate

Skin-tight Boogie bass tab by Eagles Of Death Metal

Bass tabs

Print

Skin Tight Boogie
Eagles of Death Metal

? on bass
4/4 timing
standard tuning, key F minor
pedals: fuzz

Intro (fuzz on)                         x2
G:|-----------------||------------------|------------------||
D:|-----------------||------------------|------------------||
A:|----R------------||------------------|------------------||
E:|--------------3h4||1>----3h411>---3h4|1>----4h566>---3h4||
   1 & 2 & 3 & 4 &    1 & 2 &  3 & 4 &   1 & 2 &  3 & 4 &

Verse 1                                  x2
G:||------------------|------------------|------------------|------------------||
D:||------------------|------------------|------------------|------------------||
A:||------------------|------------------|------------------|------------------||
E:||1>----3h411>---3h4|1>----4h566>---3h4|1>----3h411>---3h4|1>----4h566>---3h4||
    1 & 2 &  3 & 4 &   1 & 2 &  3 & 4 &   1 & 2 &  3 & 4 &   1 & 2 &  3 & 4 &

Chorus                                   x2
G:||------------------|------------------|------------------|------------------||
D:||------------------|------------------|------------------|------------------||
A:||------------------|------------------|------------------|------------------||
E:||1>----3h411>---3h4|1>----4h566>---3h4|1>----3h411>---3h4|1>----4h566>---3h4||
    1 & 2 &  3 & 4 &   1 & 2 &  3 & 4 &   1 & 2 &  3 & 4 &   1 & 2 &  3 & 4 &

Verse 2 (Tuesday Cross vocal)
G:|------------------|------------------|------------------|------------------|
D:|------------------|------------------|------------------|------------------|
A:|------------------|------------------|------------------|------------------|
E:|1>----3h411>---3h4|1>----4h566>---3h4|1>----3h411>---3h4|1>----4h566>---3h4|
   1 & 2 &  3 & 4 &   1 & 2 &  3 & 4 &   1 & 2 &  3 & 4 &   1 & 2 &  3 & 4 &

G:|------------------|------------------|
D:|------------------|------------------|
A:|------------------|------------------|
E:|1>----3h411>---3h4|1>----4h566>---3h4|
   1 & 2 &  3 & 4 &   1 & 2 &  3 & 4 &

Fill
G:|----------------|----------------|----------------|----------------|
D:|----------------|----------------|----------------|----------------|
A:|----------------|----------------|----------------|----------------|
E:|1>------------0-|1>------------4-|6>------------6-|8>--------------|
   1 & 2 & 3 & 4 &  1 & 2 & 3 & 4 &  1 & 2 & 3 & 4 &  1 & 2 & 3 & 4 &

Bridge (no fuzz)                     x3
G:||----------------|----------------|----------------|----------------||
D:||----------------|----------------|----------------|----------------||
A:||----------------|----------------|----------------|----------------||
D:||R-9-9-R-9-9-9-9-|R-9-9-R-9-9-9-9-|R-6-6-R-6-6-6-6-|R-6-6-R-6-6-6-6-||
    1 & 2 & 3 & 4 &  1 & 2 & 3 & 4 &  1 & 2 & 3 & 4 &  1 & 2 & 3 & 4 &

G:|R-6-6-R-6-6-6-6-|R-6-6-R-6-6-6-6\|R-3-3-R-3-3-3-3-|R-5-5-----------|
D:|----------------|----------------|----------------|--------8>--6>--|
A:|----------------|----------------|----------------|----------------|
D:|----------------|----------------|----------------|----------------|
   1 & 2 & 3 & 4 &  1 & 2 & 3 & 4 &  1 & 2 & 3 & 4 &  1 & 2 & 3 & 4 &

Verse 3 (fuzz on)                        x2
G:||------------------|------------------|------------------|------------------||
D:||------------------|------------------|------------------|------------------||
A:||------------------|------------------|------------------|------------------||
E:||1>----3h411>---3h4|1>----4h566>---3h4|1>----3h411>---3h4|1>----4h566>---3h4||
    1 & 2 &  3 & 4 &   1 & 2 &  3 & 4 &   1 & 2 &  3 & 4 &   1 & 2 &  3 & 4 &

Chorus Reprise
G:|------------------|------------------|------------------|------------------|
D:|------------------|------------------|------------------|------------------|
A:|------------------|------------------|------------------|------------------|
E:|1>----3h411>---3h4|1>----4h566>---3h4|1>----3h411>---3h4|1>----4h566>---3h4|
   1 & 2 &  3 & 4 &   1 & 2 &  3 & 4 &   1 & 2 &  3 & 4 &   1 & 2 &  3 & 4 &

G:|------------------|------------------|----------------|
D:|------------------|------------------|----------------|
A:|------------------|------------------|----------------|
E:|1>----3h411>---3h4|1>----4h566>---3h4|1>----------R---|
   1 & 2 &  3 & 4 &   1 & 2 &  3 & 4 &   1 & 2 & 3 & 4 &

Outro
G:|------------------|------------------|------------------|------------------|
D:|------------------|------------------|------------------|------------------|
A:|------------------|------------------|------------------|------------------|
E:|1>----3h411>---3h4|1>----4h566>---3h4|1>----3h411>---3h4|1>----4h566>---3h4|
   1 & 2 &  3 & 4 &   1 & 2 &  3 & 4 &   1 & 2 &  3 & 4 &   1 & 2 &  3 & 4 &

G:|------------------|------------------|----------------|
D:|------------------|------------------|----------------|
A:|------------------|------------------|----------------|
E:|1>----3h411>---3h4|1>----4h566>---3h4|1>--------------|
   1 & 2 &  3 & 4 &   1 & 2 &  3 & 4 &   1 & 2 & 3 & 4 &


|| repeat between || as indicated	h hammer on		~ vibrato
/ slide up				p pull off		^ triplet
\ slide down				1. dotted note
> legato (let note ring)		11 fret one, twice
! full stop mute			11 fret eleven
R rest					x ghost note

Comment this song and these bass tabs

Do you have corrections, comments on the bass tabs, thoughts about the song or a message to the author? Write them below.