Guitar Tabs Explorer
Eagles Of Death Metal bass tabs for Silverlake ksofm

Silverlake Ksofm bass tab


Be the first to rate

Silverlake Ksofm bass tab by Eagles Of Death Metal

Bass tabs

Print

Tuning: Standard (E A D G)

Key: Am

Difficulty: Novice

Main Riff

G|-----------------------------------------------------------|
D|-----------------------------------------------------------|
A|-----------2-3-2-3-3--3------------------------------------|
E|---5--5-5----------------2-3-2-3-3--3--4-5-4-5-5--5--5-4---|

Chorus: "So if you date this guy..."

G|--------------------------------------------------------------------------|
D|--------------------------------------------------------------------------|
A|------------------------------------5-5-5-5-5-5-5-5-5-5-5-5-5-5-5-5-5-5---|
E|--1-1-1-1-1-1-1-1-1-3-3-3-3-3-3-3-3---------------------------------------|

Main Riff

G|-----------------------------------------------------------|
D|-----------------------------------------------------------|
A|-----------2-3-2-3-3--3------------------------------------|
E|---5--5-5----------------2-3-2-3-3--3--4-5-4-5-5--5--5-4---|

Chorus: "So if you date this guy..."

G|--------------------------------------------------------------------------|
D|--------------------------------------------------------------------------|
A|------------------------------------5-5-5-5-5-5-5-5-5-5-5-5-5-5-5-5-5-5---|
E|--1-1-1-1-1-1-1-1-1-3-3-3-3-3-3-3-3---------------------------------------|

Break:

G|-----------------------------------------------------------|
D|-----------------------------------------------------------|
A|-----------2-3-2-3-3--3------------------------------------| x3
E|---5--5-5----------------2-3-2-3-3--3--4-5-4-5-5--5--5-4---|

G|--------------------------------------------------------|
D|--------------------------------------------------------|
A|----------2-3-2-3-3-3-3-5-7-----------------------------|
E|---5--5-5-------------------3--3-3--4-5-4-5-5--5--5-4---|

And then this bit at the part where the drums are gone

G|--------------------------------------------|
D|--------------------------------------------|
A|------------3--3-3--------------------------| x2
E|---5--5-5------------3--3-3---5--5-5--4-5---|

Chorus: "So if you date this guy..."

G|--------------------------------------------------------------------------|
D|--------------------------------------------------------------------------|
A|------------------------------------5-5-5-5-5-5-5-5-5-5-5-5-5-5-5-5-5-5---| repeat until the end
E|--1-1-1-1-1-1-1-1-1-3-3-3-3-3-3-3-3---------------------------------------|

That's pretty much the entire song, have fun!

Comment this song and these bass tabs

Do you have corrections, comments on the bass tabs, thoughts about the song or a message to the author? Write them below.