Search tabs and chords

Search for song, artist or band

Log in

One click and you are in

Login with Facebook Login with Google

Why sign up and log in

Guitar Tabs Explorer
Eagles Of Death Metal guitar tabs for Oh girl

Guitar tabs

Intro:

e|--------------------|--------------------|--------------------|--------------------|
B|------------------10|10b---------------10|10b---------------10|10b---12/14-12-10---|
G|---11--------9h11---|----11-------9h11---|----11-------9h11---|---11------------11-|
D|--------------------|--------------------|--------------------|--------------------|
A|--------------------|--------------------|--------------------|--------------------|
E|--------------------|--------------------|--------------------|--------------------|

e|--------------------|--------------------|--------------------|--------------------|
B|------------------10|10b---------------10|10b-12b-10--10-12-10|/14-----------------|
G|--/11--------9h11---|----11-------9h11---|--------------------|--------------------|
D|--------------------|--------------------|--------------------|--------------------|
A|--------------------|--------------------|--------------------|--------------------|
E|--------------------|--------------------|--------------------|--------------------|
Verse:

e|--------------------------|--------------------------|
B|-------2-5-5h7\5h7--------|-2--2-5--2--5--2--5-------|
G|-----2--------------------|-2--2-5--2--5--2--5--0-2--| X4
D|--4----------------4-4-4\-|-2--2-5--2--5--2--5--0-2--|
A|--------------------------|--------------------------|
E|--------------------------|--------------------------|


Pre-Chorus 1:

e|--------------------|--------------------|--------------------|--------------------|
B|--------------------|------------------10|10b---------------10|10b---12/14-12-10---|
G|---11-----9h11--9h11|-------------9h11---|----11-------9h11---|---11------------11-|
D|--------------------|--------------------|--------------------|--------------------|
A|--------------------|--------------------|--------------------|--------------------|
E|--------------------|--------------------|--------------------|--------------------|

e|--------------------|--------------------|--------------------|--------------------|
B|--/14-------------10|10b---------------10|10b-12b-10--10-12-10|/14-----------------|
G|-------------9h11---|----11-------9h11---|--------------------|--------------------|
D|--------------------|--------------------|--------------------|--------------------|
A|--------------------|--------------------|--------------------|--------------------|
E|--------------------|--------------------|--------------------|--------------------|

Chorus:

e|---------------|----------------|------------------|----------------|
B|---------------|----------------|------------------|----------------|
G|--7---7---7-7-7|4--4-4--4-4-4-4/|11---11---11-11-11|2--2-2--2-2-2-2/|
D|--7---7---7-7-7|4--4-4--4-4-4-4/|11---11---11-11-11|2--2-2--2-2-2-2/| X2
A|---------------|----------------|------------------|----------------|
E|---------------|----------------|------------------|----------------|

e|---------------|----------------|
B|---------------|----------------|
G|--7---7---7-7-7|4---------------|
D|--7---7---7-7-7|4---------------|
A|---------------|----------------|
E|---------------|----------------|


Verse:

e|--------------------------|--------------------------|
B|-------2-5-5h7\5h7--------|-2--2-5--2--5--2--5-------|
G|-----2--------------------|-2--2-5--2--5--2--5--0-2--| X4
D|--4----------------4-4-4\-|-2--2-5--2--5--2--5--0-2--|
A|--------------------------|--------------------------|
E|--------------------------|--------------------------|


Pre-Chorus 2:

e|--------------------|--------------------|--------------------|--------------------|
B|------------------10|10b---------------10|10b---------------10|10b----------14--14-|
G|---11--------9h11---|----11-------9h11---|----11-------9h11---|---11---------------|
D|--------------------|--------------------|--------------------|--------------------|
A|--------------------|--------------------|--------------------|--------------------|
E|--------------------|--------------------|--------------------|--------------------|

e|--------------------|--------------------|--------------------|----13----13--13--13--13--13|
B|------------------10|10b---------------10|10b-12b-10--10-12-10|/14----14---14--14--14--14--|
G|---11--------9h11---|----11-------9h11---|--------------------|----------------------------|
D|--------------------|--------------------|--------------------|----------------------------|
A|--------------------|--------------------|--------------------|----------------------------|
E|--------------------|--------------------|--------------------|----------------------------|


Chorus:

e|---------------|----------------|------------------|----------------|
B|---------------|----------------|------------------|----------------|
G|--7---7---7-7-7|4--4-4--4-4-4-4/|11---11---11-11-11|2--2-2--2-2-2-2/|
D|--7---7---7-7-7|4--4-4--4-4-4-4/|11---11---11-11-11|2--2-2--2-2-2-2/| X3
A|---------------|----------------|------------------|----------------|
E|---------------|----------------|------------------|----------------|

e|---------------|----------------|
B|---------------|----------------|
G|--7---7---7-7-7|4---------------|
D|--7---7---7-7-7|4---------------|
A|---------------|----------------|
E|---------------|----------------|


Verse:

e|--------------------------|--------------------------|
B|-------2-5-5h7\5h7--------|-2--2-5--2--5--2--5-------|
G|-----2--------------------|-2--2-5--2--5--2--5--0-2--| X4
D|--4----------------4-4-4\-|-2--2-5--2--5--2--5--0-2--|
A|--------------------------|--------------------------|
E|--------------------------|--------------------------|


*********************
h - hammer-on
b - bend
p - pull-off
/ - slide up
\ - slide down

Almost there ...

Sign in to get your own page with links to favourite songs and more. You are just one click away...

Login with Facebook Login with Google