Guitar Tabs Explorer
Eagles Of Death Metal bass tabs for Complexity

Complexity bass tab


Be the first to rate

Complexity bass tab by Eagles Of Death Metal

Bass tabs

Print

Complexity
Eagles of Death Metal
Zipper Down
T-Boy Records B0023942-02
2015

? on bass
4/4 timing
standard tuning, key E minor				pedals: overdrive/distortion

Intro (drums)
G:|--------|--------|--------|--------|--------|--------|--------|
D:|--------|--------|-----75-|-----75-|-----75-|-----75-|-----75-|
A:|---R----|---R----|--R----5|7!-7!--5|7!-7!--5|7!-7!--5|7!-7!--5|
E:|--------|--------|--------|--------|--------|--------|--------|
   1 2 3 4  1 2 3 4  1 2 3 4  1 2 3 4  1 2 3 4  1 2 3 4  1 2 3 4

Verse 1
G:|--------|--------|--------|--------|--------|--------|--------|----9-9-|
D:|-----75-|-----75-|-----75-|-----750|-----53-|-----75-|-----75-|--------|
A:|7!-7!--5|7!-7!--5|7!-7!--5|7!-7!---|3!-3!--3|5!-5!--5|7!-7!--5|7!-7----|
E:|--------|--------|--------|--------|--------|--------|--------|--------|
   1 2 3 4  1 2 3 4  1 2 3 4  1 2 3 4  1 2 3 4  1 2 3 4  1 2 3 4  1 2 3 4

Chorus
G:|--------|--------|--------|--------|--------|--------|--------|--------|
D:|----575-|----575-|----575-|----5750|----353-|----575-|----575-|----5/9\|
A:|7!-7---5|7!-7---5|7!-7---5|7!-7----|3!-3---3|5!-5---5|7!-7---5|7!-7----|
E:|--------|--------|--------|--------|--------|--------|--------|--------|
   1 2 3 4  1 2 3 4  1 2 3 4  1 2 3 4  1 2 3 4  1 2 3 4  1 2 3 4  1 2 3 4

Fill
G:|--------|--------|--------|--------|--------|--------|--------|--------|
D:|-----575|-----575|-----575|-----575|-----35-|-----57-|-----75-|-----75-|
A:|7!-7!---|7!-7!---|7!-7!---|7!-7!---|3!-3!--3|5!-5!--5|7!-7!--5|7!-7!--5|
E:|--------|--------|--------|--------|--------|--------|--------|--------|
   1 2 3 4  1 2 3 4  1 2 3 4  1 2 3 4  1 2 3 4  1 2 3 4  1 2 3 4  1 2 3 4

Verse 2
G:|--------|--------|--------|--------|--------|--------|--------|----9-9\|
D:|----575-|----575-|----575-|----5750|----353-|----575-|----575-|--------|
A:|7!-7---5|7!-7---5|7!-7---5|7!-7----|3!-3---3|5!-5---5|7!-7---5|7!-7----|
E:|--------|--------|--------|--------|--------|--------|--------|--------|
   1 2 3 4  1 2 3 4  1 2 3 4  1 2 3 4  1 2 3 4  1 2 3 4  1 2 3 4  1 2 3 4

Chorus Reprise
G:|--------|--------|--------|--------|--------|--------|--------|----999\|
D:|-----75-|-----75-|-----75-|-----750|-----53-|-----75-|-----75-|--------|
A:|7!-7!--5|7!-7!--5|7!-7!--5|7!-7!---|3!-3!--3|5!-5!--5|7!-7!--5|7!-7----|
E:|--------|--------|--------|--------|--------|--------|--------|--------|
   1 2 3 4  1 2 3 4  1 2 3 4  1 2 3 4  1 2 3 4  1 2 3 4  1 2 3 4  1 2 3 4

Verse 3
G:|--------|--------|--------|--------|--------|--------|--------|-----97-|
D:|--------|--------|--------|--------|--------|--------|--------|-------9|
A:|---R----|---R----|---R----|---R----|---R----|---R----|---R----|--R-7---|
E:|--------|--------|--------|--------|--------|--------|--------|--------|
   1 2 3 4  1 2 3 4  1 2 3 4  1 2 3 4  1 2 3 4  1 2 3 4  1 2 3 4  1 2 3 4

Chorus
G:|--------|--------|--------|--------|--------|--------|--------|----9\--|
D:|----575-|----575-|----575-|----5750|----353-|----575-|----575-|--------|
A:|7!-7---5|7!-7---5|7!-7---5|7!-7----|3!-3---3|5!-5---5|7!-7---5|7!-7----|
E:|--------|--------|--------|--------|--------|--------|--------|--------|
   1 2 3 4  1 2 3 4  1 2 3 4  1 2 3 4  1 2 3 4  1 2 3 4  1 2 3 4  1 2 3 4

Bridge
G:|----9999|----9999|----7777|----7777|----10101010|----7-10-|6-6-6-6-|--------|
D:|--------|--------|5-5-----|5-5-----|8-8---------|8-8------|--------|8-6-----|
A:|7-7/----|7-7/----|--------|--------|------------|---------|--------|----8>--|
E:|--------|--------|--------|--------|------------|---------|--------|--------|
   1 2 3 4  1 2 3 4  1 2 3 4  1 2 3 4  1 2 3   4    1 2 3 4   1 2 3 4  1 2 3 4

G:|----9999|----9999|----7777|----7777|----10101010|----7-10-|6-6-----|--------|
D:|--------|--------|5-5-----|5-5-----|8-8---------|8-8------|--------|6-------|
A:|7-7/----|7-7/----|--------|--------|------------|---------|----4-7-|--8>----|
E:|--------|--------|--------|--------|------------|---------|--------|--------|
   1 2 3 4  1 2 3 4  1 2 3 4  1 2 3 4  1 2 3   4    1 2 3 4   1 2 3 4  1 2 3 4

Verse 4
G:|--------|--------|--------|--------|--------|--------|--------|--------|
D:|-----75-|-----75-|-----75-|-----750|-----53-|-----75-|-----75-|-----75-|
A:|7!-7!--5|7!-7!--5|7!-7!--5|7!-7!---|3!-3!--3|5!-5!--5|7!-7!--5|7!-7!--5|
E:|--------|--------|--------|--------|--------|--------|--------|--------|
   1 2 3 4  1 2 3 4  1 2 3 4  1 2 3 4  1 2 3 4  1 2 3 4  1 2 3 4  1 2 3 4

G:|--------|--------|--------|--------|--------|--------|--------|--------|
D:|-----57-|-----75-|-----75-|-----570|-----53-|-----75-|-----75-|-----75-|
A:|7!-7!--5|7!-7!--5|7!-7!--5|7!-7!---|3!-3!--3|5!-5!--5|7!-7!--5|7!-7!--5|
E:|--------|--------|--------|--------|--------|--------|--------|--------|
   1 2 3 4  1 2 3 4  1 2 3 4  1 2 3 4  1 2 3 4  1 2 3 4  1 2 3 4  1 2 3 4

Outro
G:|--------|
D:|--------|
A:|7>\-----|
E:|--------|
   1 2 3 4


|| repeat between || as indicated	h hammer on		~ vibrato
/ slide up				p pull off		^ triplet
\ slide down				1. dotted note
> legato (let note ring)		11 fret one, twice
! full stop mute			11 fret eleven
R rest					x ghost note