Guitar Tabs Explorer
Eagles bass tabs for Train leaves here this morning

Train Leaves Here This Morning bass tab


Be the first to rate


Ayreon77Author: Ayreon77

Jamplay guitar lessons

Train Leaves Here This Morning bass tab by Eagles

"Train Leaves Here This Morning" is the opening track of side 2 of The Eagles´ self-titled debut album from 1972. "Train Leaves Here This Morning" is written by Bernie Leadon and Gene Clark.

Bass tabs

Print
  • Tuning: Standard tuning
  • Difficulty: Novice
-------------------------------------------------------------------
                             Artist - Eagles
                            *****************
                  Song - Train Leaves Here This Morning
                 ***************************************
                          Album - Eagles (1972)
                         ***********************
                          Tabbed By - Ayreon77
                         **********************
-------------------------------------------------------------------
Tuning = Standard


INTRO
******
G|-----------------------|
D|-----------------------|
A|-7~~--------5-7~~------|
E|-----5-7~~---------5-7-|


------------------------------
VERSE 1
********
G|----------------------------------------------|-----------------------|
D|------------------------------------------4~~-|-----------------------|
A|-5-7~~--------5-7~~------7--5~~---------------|-5-7~~------5-7~~------|
E|-------5-7~~---------5-7---------5~~--7~~-----|-------7~~---------5-7-|


G|----------------------------------------------|-------------------------|
D|------------------------------------------4~~-|-------------------------|
A|-5-7~~--------5-7~~------7--5~~---------------|-5-7~~------5-7~~------3-|
E|-------5-7~~---------5-7---------5~~--7~~-----|-------7~~---------5-7---|


------------------------------
00:36
CHORUS
*******
G|----------------------------------------------|--------------------------------------|
D|------------------------4-------2-4-----------|-------------------4-------2-4--------|
A|-4~~---------4~~------4----2-4-------2-4---4~~|--------4~~------4----2-4-------2-4---|
E|------2-4--4------2-4--------------------4----|-2-4--4------2-4--------------------4-|

00:53
G|-------------------------------------------|-----------------------|
D|---------------------------------------4~~-|-----------------------|
A|-7~~-------5-7~~------4--5~~---------------|-5-7~~------5-7~~------|
E|-----5-7~~--------5-7---------5~~--7~~-----|-------7~~---------5-7-|


------------------------------
01:05
VERSE 2
********
G|----------------------------------------------|-----------------------|
D|------------------------------------------4~~-|-----------------------|
A|-5-7~~--------5-7~~------7--5~~---------------|-5-7~~------5-7~~------|
E|-------5-7~~---------5-7---------5~~--7~~-----|-------7~~---------5-7-|


G|----------------------------------------------|-------------------------|
D|------------------------------------------4~~-|-------------------------|
A|-5-7~~--------5-7~~------7--5~~---------------|-5-7~~------5-7~~------3-|
E|-------5-7~~---------5-7---------5~~--7~~-----|-------7~~---------5-7---|


------------------------------
01:31
CHORUS
*******
G|----------------------------------------------|--------------------------------------|
D|------------------------4-------2-4-----------|-------------------4-------2-4--------|
A|-4~~---------4~~------4----2-4-------2-4---4~~|--------4~~------4----2-4-------2-4---|
E|------2-4--4------2-4--------------------4----|-2-4--4------2-4--------------------4-|

00:53
G|-------------------------------------------|-----------------------|
D|---------------------------------------4~~-|-----------------------|
A|-7~~-------5-7~~------4--5~~---------------|-5-7~~------5-7~~------|
E|-----5-7~~--------5-7---------5~~--7~~-----|-------7~~---------5-7-|


------------------------------
02:00
SOLO
*****
G|------------------------------------------------|-----------------------|
D|--------------------------------------------4~~-|-----------------------|
A|-5-7~~--------5-7~~------4--5~~--------s--------|-5-7~~------5-7~~------|
E|-------5-7~~---------5-7--------4-5~~-5\7~~-----|-------7~~---------5-7-|


G|------------------------------------------------|-------------------------|
D|--------------------------------------------4~~-|-------------------------|
A|-5-7~~--------5-7~~------4--5~~--------s--------|-5-7~~------5-7~~------3-|
E|-------5-7~~---------5-7--------4-5~~-5\7~~-----|-------7~~---------5-7---|

02:20
Ooooohh
G|----------------------------------------------|--------------------------------------|
D|------------------------4-------2-4-----------|-------------------4-------2-4--------|
A|-4~~---------4~~------4----2-4-------2-4---4~~|--------4~~------4----2-4-------2-4---|
E|------2-4--4------2-4--------------------4----|-2-4--4------2-4--------------------4-|


G|-------------------------------------------|-----------------------|
D|---------------------------------------4~~-|-----------------------|
A|-7~~-------5-7~~------4--5~~---------------|-5-7~~------5-7~~------|
E|-----5-7~~--------5-7---------5~~--7~~-----|-------7~~---------5-7-|


------------------------------
02:54
VERSE 3
********
G|----------------------------------------------|-----------------------|
D|------------------------------------------4~~-|-----------------------|
A|-5-7~~--------5-7~~------7--5~~---------------|-5-7~~------5-7~~------|
E|-------5-7~~---------5-7---------5~~--7~~-----|-------7~~---------5-7-|


G|----------------------------------------------|-------------------|
D|------------------------------------------4~~-|-------------------|
A|-5-7~~--------5-7~~------7--5~~---------------|-5-7~~------5-7~~~-|
E|-------5-7~~---------5-7---------5~~--7~~-----|-------7~~---------|


------------------------------
03:20
CHOURS
*******
G|----------------------------------------------|--------------------------------------|
D|------------------------4-------2-4-----------|-------------------4-------2-4--------|
A|-4~~---------4~~------4----2-4-------2-4---4~~|--------4~~------4----2-4-------2-4---|
E|------2-4--4------2-4--------------------4----|-2-4--4------2-4--------------------4-|

00:53
G|-------------------------------------------|-----------------------|
D|---------------------------------------4~~-|-----------------------|
A|-7~~-------5-7~~------4--5~~---------------|-5-7~~------5-7~~------|
E|-----5-7~~--------5-7---------5~~--7~~-----|-------7~~---------5-7-|

Outro
G|---------------------------------------|
D|---------------------------------------|
A|-7~~-------5-7~~------4--5~~-----------|
E|-----5-7~~--------5-7---------5~~--7~~-|


ENJOY............

Comment this song and these bass tabs

Do you have corrections, comments on the bass tabs, thoughts about the song or a message to the author? Write them below.