Log in

One click and you are in

Login with Facebook Login with Google

Why sign up and log in

Guitar Tabs Explorer
Eagles tabs for Those shoes

Guitar tabs with lyrics

INTRO:
        RIFF A:
E------------------------------|
B-5--7--7B(8)~~--------7R-5~~--|
G-4--6--6B(7)~~--------6R-4~~--|
D------------------------------|
A------------------------------|
E------------------------------|

E------------------------------|
B-5--7--7brb(8)~~------7R-5~~--|
G-4--6--6brb(7)~~------6r-4~~--|
D------------------------------|
A------------------------------|
E------------------------------|

E--------------------------------------|
B-5--7--7brb(8)~~-------7br-5-7brb(8)~-|
G-4--6--6brb(7)~~-------6br-4-6brb(7)~-|
D--------------------------------------|
A--------------------------------------|
E--------------------------------------|

E------------------------------|
B-7br-5~-----10----12b(14)~~---|
G-6br-4~-----9-----11b(13)~~---|
D------------------------------|
A------------------------------|
E------------------------------|

E-------------------------------|
B-8br--5--8b(9)---8br--5--8--5~-|
G-7br--4--7b(8)---7br--4--7--4~-|
D-------------------------------|
A-------------------------------|
E-------------------------------|

  GUITAR 1 AT 00:54
E---------------------------------|
B---------------------------------|
G-7br--4---7br--4---7br--4--------|
D---------------------------------|
A------------------------------2~-|
E----------------------------3-0~-|
    GUITAR 2 AT 00:54
E---------------------------------|
B---------------------------------|
G---------------------------------|
D----------------------------5----|
A---9--9--------9---9----------7~-|
E---7--7--------7---7-------------|

        (repeat riff a during the verse)
   TELL US WHAT YOU GONNA DO TONIGHT, MA - MA
D--2-------------------------------------2-2--|
A--2-------------------------------------2-2--|
E--0-------------------------------------0-0--|

   THERE MUST BE SOME PLACE YOU CAN GO.
D-2----------------------------------------2-2--|
A-2----------------------------------------2-2--|
E-0----------------------------------------0-0--|

   IN THE MIDDLE OF THE TALL DRINKS AND THE DRAMA
D-2-----------------------------------------2-2-|
A-2-----------------------------------------2-2-|
E-0-----------------------------------------0-0-|

   THERE MUST BE SOMEONE YOU KNOW
D-2---------------------------------2-2-|
A-2---------------------------------2-2-|
E-0---------------------------------0-0-|

   GOD KNOWS YOUR LOOKIN GOOD ENOUGH,
D-5-----------------------------------|
A-5-----------------------------------|
E-3-----------------------------------|

   BUT YOUR SO SMOOTH AND THE WOURLD SO ROUGH
D---------------------------------------------|
A---------------------------------------------|
E---------------------------------------------|

   YOU MIGHT HAVE SOMRTHING TO LOOSE
D-7------------------------------------7-7-|
A-7------------------------------------7-7-|
E-5------------------------------------5-5-|

  OH NO,   PRET-TY MA - MA,
E----------------------------|
B-----------8BR--5--8---5\---|
G----------------------------|
D-7--9--10-------------------|
A-7--9--10-------------------|
E-5--7--8--------------------|

    WHAT YOU GONNA DO IN THOSE SHOES
G---7br--4---7br--4---7br--4---------|
D------------------------------------|
A--------------------------------2---|
E-----------------------------3--0---|

 verse 2:

E-7--9--9B(10)~~~~~~~-----9BR-7~-|
B-8-10-10B(11)~~~~~~~----10BR-8--|
G--------------------------------|
D--------------------------------|
A--------------------------------|
E--------------------------------|

E-7--9--9B(10)~~~~--------9BR-7~-|
B-8-10-10B(11)~~~~-------10BR-8~-|
G--------------------------------|
D--------------------------------|
A--------------------------------|
E--------------------------------|

E-7--9--9BRB(10)~~~--9B-7--9BRB(10)----|
B-8-10-10BRB(11)~~~-10B-8-10BRB(11)----|
G--------------------------------------|
D--------------------------------------|
A--------------------------------------|
E--------------------------------------|

E--9BR--7------12-----14B(16)---|
B-10BR--8------14-----15B(17)---|
G-------------------------------|
D-------------------------------|
A-------------------------------|
E-------------------------------|

CHORUS:
E----------------------------------------|
B-15BR--12--15B(16)--15BR---12--15--12\--|
G----------------------------------------|
D----------------------------------------|
A----------------------------------------|
E----------------------------------------|

E--------------------------------|
B-10BR--8--10BR--8--10BR--8--8---|
G------------------------------9-|
D--------------------------------|
A--------------------------------|
E--------------------------------|


SOLO:
E-------12----12------------------------15------|
B----------12----12--15B(17)----15B-15B-----15B-|
G--14B(15)--------------------------------------|
D-----------------------------------------------|
A-----------------------------------------------|
E-----------------------------------------------|

E------------------------17B(19)R--|
B-15---15-----------------------15-|
G---------14--12B(13)--------------|
D----------------------------------|
A----------------------------------|
E----------------------------------|

E--------------------------------------------|
B-17-15-17-17B(20)---15H17B(20)--15-17B(20)--|
G--------------------------------------------|
D--------------------------------------------|
A--------------------------------------------|
E--------------------------------------------|

E-----------------------------------|
B-15h17p15~~----14--12--------------|
G-----------------------14--12b(13)-|
D-----------------------------------|
A-----------------------------------|
E-----------------------------------|

E------------------------------------------|
B-17-15-17-15--17-15--17-15-17-17B-17B(20)-|
G------------------------------------------|
D------------------------------------------|
A------------------------------------------|
E------------------------------------------|

E-17BR--15-17-17B(19)-------|
B--------------------17--15-|
G---------------------------|
D---------------------------|
A---------------------------|
E---------------------------|

E--19BR---21BR--19-18-17-----------|
B------------------------20-19-17~-|
G----------------------------------|
D----------------------------------|
A----------------------------------|
E----------------------------------|

E----17-18-19-21---------------|
B-20---------------19BR--17~~--|
G------------------------------|
D------------------------------|
A------------------------------|
E------------------------------|

E----------12-----------------12---------------|
B-12------------15-12-15B(17)----15-12---------|
G-----14B------------------------------14B(16)-|
D----------------------------------------------|
A----------------------------------------------|
E----------------------------------------------|

E----12---15B(18)--------17B(19)--------------|
B-12---------------------------17-------------|
G-----------------------------------------12\-|
D---------------------------------------------|
A---------------------------------------------|
E---------------------------------------------|

THE OUTRO IS VERY EASY TO FIGUIRE OUT!!!

THE MAIN CHORDS ARE

    (A chord diagramE MajorE)   (A chord diagramG+G)   (A chord diagramA augmentedA)   ( )   ( )
    B-2   D-5   D-7   D-9   D-10
    E-0   A-5   A-7   A-9   A-10
          E-3   E-5   E-7   E--8


TAB 🏷Legend:

\-SLIDE
H-HAMMER ON
P-PULL OFF
(*)-GHOST NOTE
B-BEND
R-RELEASE BEND
~-VIBRATO

IF YOU HAVE ANY QUESTIONS OR COMMENTS,
E-MAIL ME AT SETHK94@SBCGLOBAL.NET

   THANKS.
ⓘ Guitar tab for 'Those Shoes' by Eagles, a rock band formed in 1971 from Los Angeles, USA. Eagles is known for their relaxed folk music.

Almost there ...

Sign in to get your own page with links to favourite songs and more. You are just one click away...

Login with Facebook Login with Google