Log in

One click and you are in

Login with Facebook Login with Google

Why sign up and log in

Guitar Tabs Explorer
Eagles bass tabs for Please come home for christmas

Bass tabs

eagles/please_come_home_for_christmas.btab

Basstab by Jan Bjorklund, Finland;
jani_bjorklund@yahoo.se
You are welcome to request for basstabs!
Bienvenidos a pedirme transcripciones para el bajo!
Fingering and positions as suggested by TablEdit.

TablEdited by Jan Bjorklund for Teach

Tuning : E A D G 	Time Signature: 6/8

 |      |Bells will be ringing...|      |      |
|------------------------|------------------------|------------------------|
|------------------------|------------------------|2---------------4---2---|
|------------------------|--------------------2/4-|------------------------|
|------------------------|5-----------------------|------------------------|

 |      |      |      |      |      |
|------------------------|------------------------|------------------------|
|------------------------|7-----------4-----------|------------------------|
|------------------------|----------------7---4---|5-------------------5---|
|5-------------------5---|------------------------|------------------------|

 |      |      |      |      |      |
|------------------------|------------------------|------------------------|
|------------------------|------------------------|------------------------|
|5---------------4---5---|6-------------------6---|6---------------7-------|
|------------------------|------------------------|--------------------0---|

 |      |      |      |      |      |
|------------------------|------------------------|------------------------|
|------------------------|------------------------|------------------------|
|--------------------4---|5---------------7-------|------------------------|
|5-----------5---7-------|--------------------0---|5-----------4-----------|

 |      |      |      |      |      |
|------------------------|------------------------|------------------------|
|------------------------|------------------------|----------------0---1---|
|----------------4---3---|2-------------------2---|2-----------------------|
|2-----------------------|------------------------|------------------------|

 |      |      |     Choirs will be singing... |
|------------------------|------------------------|------------------------|
|2-----------------------|------------------------|------------------------|
|--------------------2---|------------------------|--------------------4---|
|------------------------|0---------------2---3---|5-----------------------|

 |      |      |      |      |      |
|------------------------|------------------------|------------------------|
|2---------------4---2---|------------------------|7-----------4-----------|
|------------------------|------------------------|----------------7---4---|
|------------------------|5-------------------5---|------------------------|

 |      |      |      |      |      |
|------------------------|------------------------|------------------------|
|------------------------|------------------------|------------------------|
|5-------------------5---|5---------------4---5---|6-------------------6---|
|------------------------|------------------------|------------------------|

 |      |      |      |      |      |
|------------------------|------------------------|------------------------|
|------------------------|------------------------|------------------------|
|6---------------7-------|--------------------4---|5---------------7-------|
|--------------------7---|5-----------5---7-------|--------------------0---|

 |      |      |      |      |      |
|------------------------|------------------------|------------------------|
|------------------------|------------------------|------------------------|
|------------------------|----------------4---3---|2-------------------2/--|
|5-----------4-----------|2-----------------------|------------------------|

 |      |      |      |      |      Friends and
|------------------------|------------------------|------------------------|
|------------------------|------------------------|------------------------|
|7-----------------------|------------------------|--------------------4---|
|--------------------0---|5-------------------5---|5-----------5---7-------|

 relations...|      |      |      |      |
|------------------------|------------------------|------------------------|
|------------------------|------------------------|------------------------|
|5-------------------5---|5-----------------------|5-------------------5---|
|------------------------|--------------------5---|------------------------|

 |      |      |      |      |      |
|------------------------|------------------------|------------------------|
|------------------------|------------------------|------------------------|
|5---------------7-------|------------------------|5h7-----------------7---|
|--------------------0---|5-------------------5---|------------------------|

 |      |      |      |      |      |
|------------------------|------------------------|------------------------|
|------------------------|7h9---------7-----------|------------------------|
|--------------------7---|----------------9---7---|5-------------------5---|
|5---------------5-------|------------------------|------------------------|

 |      |      |      |      |      |
|------------------------|------------------------|------------------------|
|----------------7-------|------------------------|------------------------|
|5-----------------------|5-------------------5---|5-----------------------|
|--------------------5---|------------------------|----------------5---6---|

 |      |      |      |      |      |
|------------------------|------------------------|------------------------|
|------------------------|------------------------|------------------------|
|------------------------|----------------5---6---|7-----------------------|
|7-------------------7---|7-----------------------|------------------------|

 |      |      |      |      |      |
|------------------------|------------------------|------------------------|
|------------------------|------------------------|2---------------4---2---|
|------------------------|--------------------4---|------------------------|
|------------------------|5-----------------------|------------------------|

 |      |      |      |      |      |
|------------------------|------------------------|------------------------|
|------------------------|7-----------------------|------------------------|
|------------------------|------------9---7-------|5-------------------5---|
|5-------------------5---|--------------------9---|------------------------|

 |      |      |      |      |      |
|------------------------|------------------------|------------------------|
|------------------------|------------------------|------------------------|
|5---------------4---5---|6-------------------6---|6---------------7-------|
|------------------------|------------------------|--------------------0---|

 |      |      |      |      |      |
|------------------------|------------------------|------------------------|
|------------------------|------------------------|4-----------2-----------|
|------------------------|4-------------------4---|------------------------|
|5-------------------5---|------------------------|------------------------|

 |      |      |      |      |      |
|------------------------|------------------------|------------------------|
|0-----------1-----------|2-----------4-----------|------------2-----------|
|------------------------|------------------------|2-----------------------|
|------------------------|------------------------|------------------------|

 |      |      |      |      (s o l o) |
|------------------------|------------------------|------------------------|
|------------------------|------------------------|------------------------|
|----------------5---6---|7-----------------------|--------------------2h4-|
|5-----------------------|------------------------|5-----------------------|

 |      |      |      |      |      |
|------------------------|------------------------|------------------------|
|2---------------4---2---|------------------------|7h9---------7-----------|
|------------------------|--------------------7---|----------------9---7---|
|------------------------|5-----------------------|------------------------|

 |      |      |      |      |      |
|------------------------|------------------------|------------------------|
|------------------------|------------------------|------------------------|
|5-------------------5---|5---------------4---5---|6-------------------6---|
|------------------------|------------------------|------------------------|

 |      |      |      |      |      |
|------------------------|------------------------|------------------------|
|------------------------|------------------------|----------------2---3---|
|6---------------7-------|------------------------|4-----------------------|
|--------------------0---|5-------------------5---|------------------------|

 |      |      |      |      |      |
|------------------------|------------------------|------------------------|
|4-----------2-----------|0-----------1-----------|2-----------4-----------|
|------------------------|------------------------|------------------------|
|------------------------|------------------------|------------------------|

 |      |      |      |
|------------------------|------------------------|
|------------2-----------|------------------------|
|2-----------------------|0-----------------------|
|------------------------|------------------------|

Other versions of Please Come Home For Christmas

Please come home for christmas (Ver. 2)Bass tabs
Please come home for christmas (Ver. 3)Bass tabs

Almost there ...

Sign in to get your own page with links to favourite songs and more. You are just one click away...

Login with Facebook Login with Google