Log in

One click and you are in

Login with Facebook Login with Google

Why sign up and log in

Guitar Tabs Explorer
Eagles guitar tabs for Nightingale

Guitar tabs with lyrics

Tuning: Standard (E A D G B E)



Intro::

Guitar 1

                                        PM
     Q    A chord diagramE MajorE  A chord diagramE MajorE  A chord diagramE MajorE  A chord diagramE MajorE  A chord diagramE MajorE  A chord diagramE MajorE     A chord diagramE MajorE  A chord diagramE MajorE  A chord diagramE MajorE  A chord diagramE MajorE  A chord diagramE MajorE  A chord diagramE MajorE  A chord diagramE MajorE  A chord diagramE MajorE
E||-------------------------|--------------------------|
B||-------------------------|--------------------------|
G||-------------------------|--------------------------|
D||--7----9-----7--7--9-----|--------------------------|
A||--5----5--5--5--5--5--5--|--L--5--7--5--5--5--7-----|
E||----------------------3--|--L--3--3--3--3--3--3--3--|
                                     PM
  Q    A chord diagramE MajorE  A chord diagramE MajorE  A chord diagramE MajorE  A chord diagramE MajorE  A chord diagramE MajorE  A chord diagramE MajorE     A chord diagramE MajorE  A chord diagramE MajorE  A chord diagramE MajorE  A chord diagramE MajorE  A chord diagramE MajorE  A chord diagramE MajorE  A chord diagramE MajorE  A chord diagramE MajorE     Q    A chord diagramE MajorE  A chord diagramE MajorE  A chord diagramE MajorE  A chord diagramE MajorE  A chord diagramE MajorE  A chord diagramE MajorE
-------------------------|--------------------------|-------------------------|
-------------------------|--------------------------|-------------------------|
-------------------------|--------------------------|-------------------------|
--7----9-----7--7--9-----|--------------------------|--7----9-----7--7--9-----|
--5----5--5--5--5--5--5--|--L--5--7--5--5--5--7-----|--5----5--5--5--5--5--5--|
----------------------3--|--L--3--3--3--3--3--3--3--|----------------------3--|


           PM                                                   PM
  A chord diagramE MajorE  A chord diagramE MajorE  A chord diagramE MajorE  A chord diagramE MajorE  A chord diagramE MajorE  A chord diagramE MajorE  A chord diagramE MajorE  A chord diagramE MajorE     Q    A chord diagramE MajorE  A chord diagramE MajorE  A chord diagramE MajorE  A chord diagramE MajorE  A chord diagramE MajorE  A chord diagramE MajorE     A chord diagramE MajorE  A chord diagramE MajorE  A chord diagramE MajorE  A chord diagramE MajorE  A chord diagramE MajorE  A chord diagramE MajorE  A chord diagramE MajorE  A chord diagramE MajorE
--------------------------|-------------------------|--------------------------||
--------------------------|-------------------------|--------------------------||
--------------------------|-------------------------|--------------------------||
--------------------------|--7----9-----7--7--9-----|--------------------------||
--L--5--7--5--5--5--7-----|--5----5--5--5--5--5--5--|--L--5--7--5--5--5--7-----||
--L--3--3--3--3--3--3--3--|----------------------3--|--L--3--3--3--3--3--3--3--||

Guitar 2

     Q     Q    A chord diagramE MajorE  A chord diagramE MajorE     A chord diagramE MajorE  A chord diagramE MajorE     Q    A chord diagramE MajorE  A chord diagramE MajorE  A chord diagramE MajorE  A chord diagramE MajorE  A chord diagramE MajorE  A chord diagramE MajorE
E||--------7-------------------|-------------------------|
B||-------------7--------------|-------------------------|
G||--9b------------9pbr-----7--|--L-------------7--9--7--|
D||----------------------9-----|----------7--9-----------|
A||----------------------------|-------------------------|
E||----------------------------|-------------------------|


  Q     Q    A chord diagramE MajorE  A chord diagramE MajorE     A chord diagramE MajorE  A chord diagramE MajorE     Q    A chord diagramE MajorE  A chord diagramE MajorE  A chord diagramE MajorE  A chord diagramE MajorE  A chord diagramE MajorE  A chord diagramE MajorE
--------7-------------------|-------------------------|
-------------7--------------|-------------------------|
--9b------------9pbr-----7--|--L-------------7--9--7--|
----------------------9-----|----------7--9-----------|
----------------------------|-------------------------|
----------------------------|-------------------------|


  Q     Q    A chord diagramE MajorE  A chord diagramE MajorE     A chord diagramE MajorE  A chord diagramE MajorE     Q    A chord diagramE MajorE  A chord diagramE MajorE  A chord diagramE MajorE  A chord diagramE MajorE  A chord diagramE MajorE  A chord diagramE MajorE
--------7-------------------|-------------------------|
-------------7--------------|-------------------------|
--9b------------9pbr-----7--|--L-------------7--9--7--|
----------------------9-----|----------7--9-----------|
----------------------------|-------------------------|
----------------------------|-------------------------|


  Q     Q    A chord diagramE MajorE  A chord diagramE MajorE     A chord diagramE MajorE  A chord diagramE MajorE     Q    A chord diagramE MajorE  A chord diagramE MajorE  A chord diagramE MajorE  A chord diagramE MajorE  A chord diagramE MajorE  A chord diagramE MajorE
--------7-------------------|-------------------------||
-------------7--------------|-------------------------||
--9b------------9pbr-----7--|--L-------------7--9-----||
----------------------9-----|----------7--9--------0--||
----------------------------|-------------------------||
----------------------------|-------------------------||





Verse:


Guitar 1

                  PM                                               PM
     Q    Q    A chord diagramE MajorE  Q    A chord diagramE MajorE     Q    A chord diagramE MajorE  A chord diagramE MajorE  Q    A chord diagramE MajorE  A chord diagramE MajorE     Q    Q    A chord diagramE MajorE  Q    A chord diagramE MajorE
E||--2----2---------------|------------------------|-----------------------|
B||--3----3---------------|------------------------|-----------------------|
G||--2----2---------------|---------------------x--|--2----2---------------|
D||--0----0-------2-------|------------------2-----|--0----0-------2-------|
A||---------------0----5--|--L-------5--5----0-----|---------------0----5--|
E||--------------------3--|--L-------3--3----------|--------------------3--|


                                        PM
  Q    A chord diagramE MajorE  A chord diagramE MajorE  Q    A chord diagramE MajorE  A chord diagramE MajorE     Q    Q    A chord diagramE MajorE  Q    A chord diagramE MajorE     Q    A chord diagramE MajorE  A chord diagramE MajorE  Q    A chord diagramE MajorE  A chord diagramE MajorE
------------------------|-----------------------|------------------------|
------------------------|-----------------------|------------------------|
---------------------x--|--2----2---------------|---------------------x--|
------------------2-----|--0----0-------2-------|------------------2-----|
--L-------5--5----0-----|---------------0----5--|--L-------5--5----0-----|
--L-------3--3----------|--------------------3--|--L-------3--3----------|


               PM                                              PM
  Q    Q    A chord diagramE MajorE  Q    A chord diagramE MajorE     Q    A chord diagramE MajorE  A chord diagramE MajorE  Q    Q       Q    Q    A chord diagramE MajorE  Q    A chord diagramE MajorE
-----------------------|-----------------------|-----------------------|
-----------------------|-----------------------|-----------------------|
--2----2---------------|-----------------------|--2----2---------------|
--0----0-------2-------|-----------------------|--0----0-------2-------|
---------------0----5--|--L-------5--5----3----|---------------0----5--|
--------------------3--|--L-------3--3----1----|--------------------3--|


                                        PM
  Q    A chord diagramE MajorE  A chord diagramE MajorE  Q    A chord diagramE MajorE  A chord diagramE MajorE     Q    Q    A chord diagramE MajorE  Q    A chord diagramE MajorE     Q    A chord diagramE MajorE  A chord diagramE MajorE  Q    A chord diagramE MajorE  A chord diagramE MajorE
------------------------|-----------------------|------------------------|
------------------------|-----------------------|------------------------|
---------------------x--|--2----2---------------|---------------------x--|
------------------2-----|--0----0-------2-------|------------------2-----|
--L-------5--5----0-----|---------------0----5--|--L-------5--5----0-----|
--L-------3--3----------|--------------------3--|--L-------3--3----------|


               PM                                               PM
  Q    Q    A chord diagramE MajorE  Q    A chord diagramE MajorE     Q    A chord diagramE MajorE  A chord diagramE MajorE  Q    A chord diagramE MajorE  A chord diagramE MajorE     Q    Q    A chord diagramE MajorE  Q    A chord diagramE MajorE
-----------------------|------------------------|-----------------------|
-----------------------|------------------------|-----------------------|
--2----2---------------|---------------------x--|--2----2---------------|
--0----0-------2-------|------------------2-----|--0----0-------2-------|
---------------0----5--|--L-------5--5----0-----|---------------0----5--|
--------------------3--|--L-------3--3----------|--------------------3--|


  Q    A chord diagramE MajorE  A chord diagramE MajorE  Q    Q
-------------0----0----||
-------------3----3----||
-------------2----2----||
-----------------------||
--L-------5------------||
--L-------3------------||



Guitar 2

     H        A chord diagramE MajorE  A chord diagramE MajorE  A chord diagramE MajorE  A chord diagramE MajorE     Q    A chord diagramE MajorE  A chord diagramE MajorE  A chord diagramE MajorE  A chord diagramE MajorE  A chord diagramE MajorE  A chord diagramE MajorE     H        A chord diagramE MajorE  A chord diagramE MajorE  A chord diagramE MajorE  A chord diagramE MajorE
E||-----------------------|-------------------------|-----------------------|
B||--7-----------5--------|-------------------------|--7-----------5--------|
G||--7-----------6-----4--|--L----------4-----6-----|--7-----------6-----4--|
D||--------------------5--|--L-------0--5-----7-----|--7-----------------5--|
A||-----------------------|-------------------------|-----------------------|
E||-----------------------|-------------------------|-----------------------|


  Q    A chord diagramE MajorE  A chord diagramE MajorE  A chord diagramE MajorE  A chord diagramE MajorE  A chord diagramE MajorE  A chord diagramE MajorE     H        A chord diagramE MajorE  A chord diagramE MajorE  A chord diagramE MajorE  A chord diagramE MajorE     Q    A chord diagramE MajorE  A chord diagramE MajorE  A chord diagramE MajorE  A chord diagramE MajorE  A chord diagramE MajorE  A chord diagramE MajorE
-------------------------|-----------------------|-------------------------|
-------------------------|--7-----------5--------|-------------------------|
--L----------4-----6-----|--7-----------6-----4--|--L----------4-----6-----|
--L-------0--5-----7-----|--7-----------------5--|--L-------0--5-----7-----|
-------------------------|-----------------------|-------------------------|
-------------------------|-----------------------|-------------------------|


  H        A chord diagramE MajorE  A chord diagramE MajorE  A chord diagramE MajorE  A chord diagramE MajorE     Q    A chord diagramE MajorE  A chord diagramE MajorE  A chord diagramE MajorE  A chord diagramE MajorE  A chord diagramE MajorE  A chord diagramE MajorE     H        A chord diagramE MajorE  A chord diagramE MajorE  A chord diagramE MajorE  A chord diagramE MajorE
-----------------------|-------------------------|-----------------------|
--7-----------5--------|-------------------------|--7-----------5-----3--|
--7-----------6-----4--|--L----------4-----6-----|--7-----------6-----4--|
--7-----------------5--|--L-------0--5-----7-----|--7-----------7-----5--|
-----------------------|-------------------------|-----------------------|
-----------------------|-------------------------|-----------------------|


  Q    A chord diagramE MajorE  A chord diagramE MajorE  A chord diagramE MajorE  A chord diagramE MajorE  A chord diagramE MajorE  A chord diagramE MajorE     H        A chord diagramE MajorE  A chord diagramE MajorE  A chord diagramE MajorE  A chord diagramE MajorE     Q    A chord diagramE MajorE  A chord diagramE MajorE  A chord diagramE MajorE  A chord diagramE MajorE  A chord diagramE MajorE  A chord diagramE MajorE
-------------------------|-----------------------|-------------------------|
-------------3-----5-----|--7-----------5-----3--|-------------3-----5-----|
--L----------4-----6-----|--7-----------6-----4--|--L----------4-----6-----|
--L-------0--5-----7-----|--7-----------7-----5--|--L-------0--5-----7-----|
-------------------------|-----------------------|-------------------------|
-------------------------|-----------------------|-------------------------|


  H        A chord diagramE MajorE  A chord diagramE MajorE  A chord diagramE MajorE  A chord diagramE MajorE     Q    A chord diagramE MajorE  A chord diagramE MajorE  A chord diagramE MajorE  A chord diagramE MajorE  A chord diagramE MajorE  A chord diagramE MajorE     H        A chord diagramE MajorE  A chord diagramE MajorE  A chord diagramE MajorE  A chord diagramE MajorE
-----------------------|-------------------------|-----------------------|
--7-----------5-----3--|-------------3-----5-----|--7-----------5-----3--|
--7-----------6-----4--|--L----------4-----6-----|--7-----------6-----4--|
--7-----------7-----5--|--L-------0--5-----7-----|--7-----------7-----5--|
-----------------------|-------------------------|-----------------------|
-----------------------|-------------------------|-----------------------|


  H        Q    Q
-----------7----7----||
-----------8----8----||
--L--------7----7----||
--L------------------||
---------------------||
---------------------||





Pre Chorus:


Guitar 1

     A chord diagramE7E7                     A chord diagramA7A7
     Q    Q    Q    Q       W                   Q    A chord diagramE MajorE  A chord diagramE MajorE  Q    A chord diagramE MajorE  A chord diagramE MajorE
E||--0----0----0----0----|--0----------------|------------------------|
B||--3----3----3----3----|--2----------------|------------------------|
G||--1----1----1----1----|--0----------------|------------------------|
D||--0----0----0----0----|--2----------------|------------------------|
A||--2----2----2----2----|--0----------------|--5-------5--5-------5--|
E||--0----0----0----0----|-------------------|--3-------3--3-------3--|


                            A chord diagramE7E7                     A chord diagramA7A7
  A chord diagramE MajorE  A chord diagramE MajorE  A chord diagramE MajorE  A chord diagramE MajorE  A chord diagramE MajorE  A chord diagramE MajorE  Q       Q    Q    Q    Q       Q    Q    Q    Q
--------------3----------|--0----0----0----0----|--0----0----0----0----|
--------------3----------|--3----3----3----3----|--2----2----2----2----|
-------------------------|--1----1----1----1----|--0----0----0----0----|
-------------------------|--0----0----0----0----|--2----2----2----2----|
-----5-----5--5-----5----|--2----2----2----2----|--0----0----0----0----|
-----3-----3--3-----3----|--0----0----0----0----|----------------------|


  H        H           A chord diagramE MajorE  A chord diagramE MajorE  A chord diagramE MajorE  A chord diagramE MajorE  A chord diagramE MajorE  A chord diagramE MajorE  A chord diagramE MajorE  A chord diagramE MajorE
--------------------|--------------------------||
--------------------|--------------------------||
--------------------|--------------------------||
--5--------6--------|-----------------------0--||
--5--------6--------|--0--1-----2-----3--4-----||
--3--------4--------|--------------------------||



Guitar 2

     A chord diagramE7E7                     A chord diagramA7A7
     Q    Q    Q    Q       H        A chord diagramE MajorE  A chord diagramE MajorE  A chord diagramE MajorE  A chord diagramE MajorE     Q    A chord diagramE MajorE  A chord diagramE MajorE  Q    A chord diagramE MajorE  A chord diagramE MajorE
E||--7----7----7----7----|--5--------5-----5--5--|------------------------|
B||--9----9----9----9----|--5--------5-----5--5--|--3-------3--3-------3--|
G||--7----7----7----7----|--6--------6-----6--6--|--4-------4--4-------4--|
D||--9----9----9----9----|--5--------5-----5--5--|--5-------5--5-------5--|
A||--7----7----7----7----|--0--------0-----0--0--|------------------------|
E||--0----0----0----0----|-----------------------|------------------------|


                           A chord diagramE7E7   A chord diagramE7E7   A chord diagramE7E7   A chord diagramE7E7      A chord diagramA7A7
  A chord diagramE MajorE  A chord diagramE MajorE  A chord diagramE MajorE  A chord diagramE MajorE  Q.     A chord diagramE MajorE     Q    Q    Q    Q       Q    Q    Q    Q
------------------------|--7----7----7----7----|--5----5----5----5----|
--3-----3--3--3---------|--9----9----9----9----|--5----5----5----5----|
--4-----4--4--4---------|--7----7----7----7----|--6----6----6----6----|
--5-----5--5--5---------|--9----9----9----9----|--5----5----5----5----|
------------------------|--7----7----7----7----|--0----0----0----0----|
------------------------|--0----0----0----0----|----------------------|


  H        H           A chord diagramE MajorE  A chord diagramE MajorE  A chord diagramE MajorE  A chord diagramE MajorE  A chord diagramE MajorE  A chord diagramE MajorE  A chord diagramE MajorE  A chord diagramE MajorE
--------------------|--------------------------||
--3--------4--------|--------------------------||
--4--------5--------|--------------------------||
--5--------6--------|-----------------------0--||
--------------------|--0--1-----2-----3--4-----||
--------------------|--------------------------||





Chorus: - Actually, it more than a chorus. It's like a Pre-chorus leading into
a chorus but I already used the name "pre chorus" so I am combinmg the section
together.


Guitar 1

     A chord diagramB minorBm
     W                   W                   Q    Q    Q    A chord diagramE MajorE  A chord diagramE MajorE
E||-------------------|-------------------|-----------------------|
B||--3----------------|--3----------------|--3----3----3----3--3--|
G||--4----------------|--4----------------|--2----2----2----2--2--|
D||--4----------------|--4----------------|--0----0----0----0--0--|
A||--2----------------|--2----------------|-----------------------|
E||-------------------|-------------------|-----------------------|


                         A chord diagramE MajorE                      A chord diagramE MajorE
  Q    Q    Q    Q       Q.     A chord diagramE MajorE   H           Q.     A chord diagramE MajorE   H
----------------------|----------------------|----------------------|
--3----3----3----3----|--9------9\-----------|--9------9\-----------|
--2----2----2----2----|--9------9\-----------|--9------9\-----------|
--0----0----0----0----|--9-------------------|--9-------------------|
----------------------|----------------------|----------------------|
----------------------|----------------------|----------------------|


  A chord diagramA5A5                      A chord diagramG5G5   A chord diagramG#5G#5  A chord diagramA5A5   A chord diagramA#5A#5     A chord diagramB5B5
  Q.     A chord diagramE MajorE  Q    A chord diagramE MajorE  A chord diagramE MajorE     Q    Q    Q    Q       Q    A chord diagramE MajorE   A chord diagramE MajorE  H
-----------------------|----------------------|-----------------------|
-----------------------|----------------------|-----------------------|
--2---------2----------|----------------------|-----------------------|
--2------2--2----2-----|----------------------|-----------------------|
--0------0--0----0-----|--5----6----7----8----|--9----L\--------------|
-----------------------|--3----4----5----6----|--7----L\--------------|


                      A chord diagramD5D5
  W                   Q    Q    Q    Q       Q    Q    A chord diagramE MajorE  A chord diagramE MajorE  Q
-------------------|----------------------|-----------------------|
-------------------|----------------------|-------8----8--7-------|
-------------------|--7----7----7----7----|--7----7----7--7--7----|
-------------------|--7----7----7----7----|--7----7----7--7--7----|
-------------------|--5----5----5----5----|--5----5----5--5--5----|
-------------------|----------------------|-----------------------|


  A chord diagramB5B5                                                 A chord diagramA#A#
  Q    A chord diagramE MajorE  A chord diagramE MajorE  Q    A chord diagramE MajorE  A chord diagramE MajorE     Q    A chord diagramE MajorE  A chord diagramE MajorE  A chord diagramE MajorE  A chord diagramE MajorE  A chord diagramE MajorE  A chord diagramE MajorE     Q    Q    Q    Q
------------------------|-------------------------|----------------------|
------------------------|-------------------------|--6----6----6----6----|
------------------------|-------------------------|--7----7----7----7----|
--9-------9--9-------9--|--9-------9--9-----9-----|--8----8----8----8----|
--9-------9--9-------9--|--9-------9--9-----9-----|--8----8----8----8----|
--7-------7--7-------7--|--7-------7--7-----7-----|--6----6----6----6----|


  A chord diagramF5F5                     A chord diagramC majorC                   A chord diagramG MajorG
  Q    Q    Q    Q       W                   W
----------------------|-------------------|-------------------||
----------------------|--5----------------|-------------------||
----------------------|--5----------------|--4----------------||
--3----3----3----3----|--5----------------|--5----------------||
--3----3----3----3----|--3----------------|--5----------------||
--1----1----1----1----|-------------------|--3----------------||



Guitar 2


     A chord diagramB5B5                                          A chord diagramD MajorD
     W                   Q    Q    Q    A chord diagramE MajorE  A chord diagramE MajorE     Q    Q    Q    A chord diagramE MajorE  A chord diagramE MajorE
E||-------------------|-----------------------|--2----2----2----2--2--|
B||--0----------------|--0----0----0----0--0--|--3----3----3----3--3--|
G||--4----------------|--4----4----4----0--0--|--2----2----2----2-----|
D||--4----------------|--4----4---------0-----|--0----0----0----0-----|
A||--2----------------|-----------------------|-----------------------|
E||-------------------|-----------------------|-----------------------|


                             A chord diagramE MajorE                     A chord diagramE MajorE
  A chord diagramE MajorE  S S Q    A chord diagramE MajorE  A chord diagramE MajorE  A chord diagramE MajorE  A chord diagramE MajorE     Q.     A chord diagramE MajorE  H           Q.     A chord diagramE MajorE  H
--L------2----2--2--2-----|--0------0-----------|--0------0-----------|
--L--3-3-3----3--3--3--3--|--0------0-----------|--0------0-----------|
-----2-2-2----2-----2--2--|--1------1-----------|--1------1-----------|
-----0-0-0----0-----0--0--|--2------2-----------|--2------2-----------|
--------------------------|---------------------|---------------------|
--------------------------|---------------------|---------------------|


  A chord diagramA majorA                       A chord diagramG MajorG    A chord diagramG#G#   A chord diagramA majorA    A chord diagramA#A#      A chord diagramBB
  Q.     A chord diagramE MajorE  Q    A chord diagramE MajorE  A chord diagramE MajorE     Q    Q    Q    Q       Q    A chord diagramE MajorE   A chord diagramE MajorE  H
--5------5--5----------|----------------------|-----------------------|-----|
--5------5--5----5-----|----------------------|-----------------------|-----|
--6------6--6----6-----|----------------------|-----------------------|-----|
--7------7--7----7-----|--5----6----7----8----|--9----L\--------------|-----|
-----------------------|--5----6----7----8----|--9----L\--------------|-----|
-----------------------|----------------------|-----------------------|-----|


  A chord diagramD5D5                                            A chord diagramB minorBm
  Q    Q    Q    Q       Q    Q    Q    Q       Q    A chord diagramE MajorE  A chord diagramE MajorE  Q    A chord diagramE MajorE  A chord diagramE MajorE
----------------------|----------------------|------------------------|
--3----3----3----3----|--3----3----3----3----|--3-------3--3-------3--|
--2----2----2----2----|--2----2----2----2----|--4-------4--4-------4--|
--0----0----0----0----|--0----0----0----0----|--4-------4--4-------4--|
----------------------|----------------------|--2-------2--2-------2--|
----------------------|----------------------|------------------------|


                            A chord diagramA#A#                     A chord diagramF5F5
  A chord diagramE MajorE  S S A chord diagramE MajorE  A chord diagramE MajorE  Q    Q       Q    Q    Q    Q       Q    Q    Q    Q
-------------------------|----------------------|----------------------|
--3----3----3--3----3----|--3---------3---------|-----------------1----|
--4----4----4--4----4----|--3----3----3----3----|-----------------2----|
--4----4----4--4----4----|--3----3----3----3----|--3----3----3----3----|
--2----2----2--2----2----|--1----1----1----1----|--3----3----3----3----|
-------------------------|----------------------|--1----1----1----1----|


                      A chord diagramG5G5
  W                   W
-------------------|-------------------||
--1----------------|--0----------------||
--0----------------|--0----------------||
--2----------------|--0----------------||
--3----------------|--x----------------||
-------------------|--3----------------||




Here's the little "solo" that's not really a solo:


       Q      Q      Q      Q         A chord diagramE MajorE    A chord diagramE MajorE    Q      Q    A chord diagramE MajorE  A chord diagramE MajorE
E||------------------------------|--------------------------------|
B||------------------------------|--------------------------------|
G||--6g7----6g7----6g7----6g7----|--6g7--6g7--6g7----6g7----7--7--|
D||------------------------------|--------------------------------|
A||------------------------------|--------------------------------|
E||------------------------------|--------------------------------|


    Q      Q      Q      Q         A chord diagramE MajorE    A chord diagramE MajorE    Q      Q    A chord diagramE MajorE  A chord diagramE MajorE
------------------------------|--------------------------------||
------------------------------|--------------------------------||
--6g7----6g7----6g7----6g7----|--6g7--6g7--6g7----6g7----7--7--||
------------------------------|--------------------------------||
------------------------------|--------------------------------||
------------------------------|--------------------------------||




That's all I have right now. There's a lot to this song and I dn't have time to do it all. Maybe one day I will add some
more to it. For the most part, this is basically all the parts though.


Duration Legend
---------------
W - whole
H - half
Q - quarter
A chord diagramE MajorE - 8th
S - 16th
. - note dotted
|-n-|  - n-tuplets


Tablature Legend
----------------
L - tied note
x - dead note
g - grace note
(n) - ghost note
> - accentuded note
h - hammer on
p - pull off
b - bend
br - bendRelease
pb - preBend
pbr - preBendRelease
brb - bendReleaseBend
S - shift slide
~ - vibrato

Other versions of Nightingale

NightingaleChords

↓ Add and view comments below ↓

What do you think about this song and these tabs?

Add your comments, questions, rant or a thumbs up below.

Almost there ...

Sign in to get your own page with links to favourite songs and more. You are just one click away...

Login with Facebook Login with Google