Log in

One click and you are in

Login with Facebook Login with Google

Why sign up and log in

Guitar Tabs Explorer
Eagles chords for I cant tell you why ukulele

I Can't Tell You Why Ukulele chords by Eagles

Eagles chords for I cant tell you why ukulele

Guitar chords with lyrics

Intro:

      Am G     Am G     Am G     Am Em7
A|----------00-2----------00-2----------00-2----------00--2-----------|
E|----------00-3----------00-3----------00-3----------00--0-----------|
C|-----0-2--00-2-----0-2--00-2-----0-2--00-2-----0-2--00--2-----------|
G|-h2-4---2-22-0-h2-4---2-22-0-h2-4---2-22-0-h2-4---2-22--0-----------|

Verse 1:

Cmaj7              Fmaj7
Look at us baby, up all night, tearing our love apart
Cmaj7                      Fmaj7       E7sus4 E7
Aren’t we the same two people who lived through years in the dark? Ah ...ah
 Am         G     Fmaj7          E7sus4     E7
Every time I try to walk away, something makes me turn around and stay
  Am        G
And I can't tell you why

     Am Em7
A|-----------|
E|-----------|
C|-----0-2---|
G|-h2-4----2-|


Verse 2:

Cmaj7                  Fmaj7
When we get crazy, it just ain't right, girl, I get lonely too
                   (try to keep you head, little girl)
Cmaj7                    Fmaj7    E7sus4 E7
You don't have to worry, just hold on tight,  cause I love you
                 (don't get caught in your little world)
 Am            G     Fmaj7           E7sus4  E7
Nothing's wrong as far as I can see, we make it harder than it has to be
Am        G      Fmaj7        G  E7
I can't tell you why, no baby, I can't tell you why
Am        G
I can't tell you why


Solo:

       Am G      Am G Cmaj7 Fmaj7  Cmaj7 Fmaj7
A|-----------00-2-----------00-2------------------------75------------|
E|-----------00-3-----------00-3----------53---------358--88753-------|
C|-----0-2---00-2-----0-2---00-2-----0-2-4--442020-24----------4-2-0--|
G|-h2-4----2-22-0-h2-4----2-22-0h2-4--------------2-------------------|


Verse 3:

 Am         G     Fmaj7          E7sus4    E7
Every time I try to walk away, something makes me turn around and stay
  Am        G         Fmaj7       E7sus4  E7
And I can't tell you why,  no no, baby, I can't tell you why
Am        G E7 Am        G
I can't tell you why,  I can't tell you why


Outro:

       Am G
A|-----------00-2---------0-|
E|-----------00-3---------0-|
C|-----0-2---00-2-----0-2-0-|
G|-h2-4----2-22-0-h2-4----2-|

Almost there ...

Sign in to get your own page with links to favourite songs and more. You are just one click away...

Login with Facebook Login with Google