Log in

One click and you are in

Login with Facebook Login with Google

Why sign up and log in

Guitar Tabs Explorer
Eagles tabs for Heartache tonight

Guitar tabs with lyrics

HEARTACHE TONIGHT

e-------------|
b-------------|
g-3-----5-----|
d-3-3-3-5-4s5-|
a-1-3-3-3-4s5-|
e---1-1---2s3-|

some body gonna hurt some one befor the night is through
somebody gonna come undone theres nothing we can do

D-4s5-
A-4s5- do this slide pART AFTER the end of the sentance just listen to the
E-2s3- song
every body wants to touch somebody if it takes all night
everbody wants to take a little tanch make it come out right

e-------------------------------------------|
b-------------------------------------------|
g-----10s8-10--(10)s---10s8s10s8------------|
d-(9)-10s8-10--(10)s-------------10--10s----|
a----------10--(10)s------------------------|
e-------------------------------------------|

e-----------------------------------------|
b-----------------------------------------|
g-----------------------------------------|
d-5-7--8--7--5--7--8--7-------------------|
a--3--3--3--3--3--3--3--3------5--7--8--7-|
e-----------------------------3--3--3--3--|
theres gonna be a heartache tonight a heart ache tonight i know

e---15---15-15~~~~----15-------------|
b-15--15-----------15----------------|
g--------------------------------15--|
d-----------------------------15-----|
a------------------------------------|
e------------------------------------|

some people like to stay out but some falks cant hold out that long

e-------------------------------------------------------------------|
b-------------------------------------------------------------------|
g-------------------------------------------------------------------|
d--------------1s2-----2-x-----------------1s2-----2-x--------------|
a-5-5-5-5-5-5--1s2-2-2-2-x-4s5-5-5-5-5-5-x-1s2-2-2-2-x-4s-5-5-5-5-5-|
e-3-3-3-3-3-3------0-0-0-x-2s3-3-3-3-3-3-x-----0-0-0-x-2s-3-3-3-3-3-|

e------------------------|
b------------------------|
g------------------5-----|
d----4s-5-5-x------5-----|
a-s7-2s-3-3-x-x----3--4s-|
e---------------------2s-|

but nobody wants to go home now theres to much going on

e-10---------------------10------------|
b---8----------------------8-----------|
g-----10---------------------10-----10-|
d--------10-10-------------------10-10-|
a--------------------------------------|
e--------------------------------------|

this night is gonna last forever last all last all summer long
e-----------------------0----0---------------------------|
b-----------------------0----0---------------------------|
g------------------------------------------------------3-|
d-------------------------2----------------------------1-|
a-5-5-5-5-5-5-x-5------------------4s5-5-x--5--5-x-------|
e-3-3-3-3-3-3-x-3------------------2s3-3-x--3--3-x-------|

sometime befor the sun comes up

e-----------------------------------------------|
b----5----5-------------------------------------|
g----4----4-------------------------------5-----|
d-4--------------------------4-5-5-7------5-x---|
a-2----2-------4s5-5-5-5-5-x-2-3-3-3--3---5-x-4-|
e--------------2s3-3-3-3-3-x------------------2-|

the radio is gonna play that song

e----10----10-------------------------|
b---------------------10--------------|
g-10----10-------9-10-----------------|
d------------------------10--10s8-----|
a-------------------------------------|
e-------------------------------------|

theres gonna be a heartache tonight a heart ache tonight i know

e-(3)-3s1-3-3~~x--------------------|
b---------3-----------6---8s12------|
g------------------------------10-8-|
d---------------------------------8-|
a---------------------------------6-|
e-----------------------------------|


theres gonna be a heart ache tonight the moon shinin bright so turn out the light an
get it right theres gonna be a heart ache tonight a heartache to night i know  HEARTACHE BABY

e----------------------------------15----15---------15----15-15~~-|
b---10-10-------10-10-10s-----------------------------------------|
g---10-10-------10-10-10s-14---15-----15----x-14-15----15---------|
d---10-10-------10-10-10s-----------------------------------------|
a-10--------------------------------------------------------------|
e-10-------10-----------------------------------------------------|

e------------------------15---------------------------------------|
b-11s10-8-10s8----8---15----14s15---------------------15-14-13----|
g---------------8-----15----14s15--15---s15s----------15-14-13-15-|
d----------------------------------15-----------15-15----------15-|
a-----------------------------------------------15-15-------------|
e-----------------------------------------------------------------|

e-----------------| ok i let you know where you guys are at in the song
b----15-14-13-----|
g-15-15-14-13-15s-|
d-15----------15s-| he says heart ache baby and then the solo
a-----------------|
e-----------------|

  SOLO
e----------------15--------x(0)-------------------15--15--15--15-|
b-13--13--13-15s-15--------x(0)-------6-6-6-6--15---15--15--15---|
g---15--14---15s-15-13s15------13(13)---------x------------------|
d----------------------------------------------------------------|
a----------------------------------------------------------------|
e----------------------------------------------------------------|

e-(0)-------------------------------------------------------10----------|
b-(0)--18--18s(0)s11s0-----------------------13--13---------------------|
g----18--18------------11---6--6-6----8-8s13---13--13s8s10-----10-(10---|s
d------------------------xs--6-----6------------------------------------|
a-----------------------------------------------------------------------|
e-----------------------------------------------------------------------|

e-------------------8~~~~--------------------------------5-------10~~~~--|
b-----------8s6------------18---18----------------8----------------------|
g-8--(8)s-------6s-----------18----16s15-----15s--8--4s5---9s10----------|
d-8--(8)s---------------------------------15-15s--8----------------------|
a------------------------------------------------------------------------|
e------------------------------------------------------------------------|

then he starts singing while hes singing play the solo below
e---15-------------------15-----------8--8------------------------------|
b------15------------------15------------8---------------15-------------|
g-15---------15-x-14s15-------15s6s8-------13s11---13s15---15------15s8-|
d------------------------------------------------12----------15-15-15s8-|
a---------------------------------------------------------------15------|
e-----------------------------------------------------------------------|

e-----------------------------------------15---------------------------|
b-------------------------8-8-8-8-8-8--------15------------------------|
g-(8)s15-15-14-13-15-(15)-8-8-8-8-8-8--15-------15s--13-13s15-13s15-15-|
d-(8)s15-15-14-13-15-(15)-8-8-8-8-8-8-----------15sx-13-13s15-13s15-15-|
a----------------------------------------------------------------------|
e----------------------------------------------------------------------|

end solo
e--------------------------------------------------------------------|
b--10s-10s-10s11s13s15----------------------18---18--18-----15-------|
g----------------------------------------18---18---18----15---15--15-|
d----------------------13-13-13-13s15-15-----------------------------|
a--------------------------------------------------------------------|
e--------------------------------------------------------------------|

e-18----------18-------------------------------------------------|
b----20s18----------------------15s13------(3)s----------------3-|
g---------18-----18s16s15-------------15---(3)s-13s(13)-8(8)s--3-|
d--------------------15-15--------------15-(3)s-13s(13)-8(8)s--3-|
a-----------------------------------------------13s(13)-8(8)s--3-|
e-------------------------------------------3-s-13s(13)-8(8)s--3-|

a hard song to learn but when you get it and all the solos down its so fun to play have

Other versions of Heartache Tonight

Heartache tonightChords

Almost there ...

Sign in to get your own page with links to favourite songs and more. You are just one click away...

Login with Facebook Login with Google