Log in

One click and you are in

Login with Facebook Login with Google

Why sign up and log in

Guitar Tabs Explorer
Eagles tabs for Doolin-dalton

Guitar tabs with lyrics

DOOLIN-DALTON

As recorded by The Eagles
(From the 1973 Album DESPERADO)

Words and Music by Glenn Frey, John David Souther, Don Henley & Jackson Browne

Transcribed by Slowhand
Gtr I (E A D G B E) - 'Don Henley - Acoustic Guitar'
Gtr II (E A D G B E) - 'Bernie Leadon - Electric Guitar'
Gtr III (E A D G B E) - 'Glenn Frey - Harmonica'
Gtr IV (E A D G B E) - 'Glenn Frey - Acoustic Guitar'

 Intro
  Q=64
  A chord diagramA augmentedA         A/G#               A chord diagramF# minorF#m                             A chord diagramA augmentedA
 4/4
  Gtr I (Ac. Gtr.)
  A chord diagramE MajorE A chord diagramE MajorE A chord diagramE MajorE S S A chord diagramE MajorE A chord diagramE MajorE  S S  S S       A chord diagramE MajorE A chord diagramE MajorE     S S S S A chord diagramE MajorE A chord diagramE MajorE     S S  S S
|-0-0-0-0-0-0-0--0-0--0-0-|-----2-2-----2-2-2-2-2-2-----2-2--2-0-|
|-2-2-2-2-2-2-2--2-2--2-2-|-----2-2-----2-2-2-2-2-2-----2-2--2-2-|
|-2-2-2-2-2-2-2--2-2--2-2-|-----2-2-----2-2-2-2-2-2-----2-2--2-2-|
|-2-2-2-2-2-2-2--2-2--2-2-|-----4-4-----4-4-4-4-4-4-----4-4--4-2-|
|-0-0-0-0-0-0-0--0-0--0-0-|-----4-4-----4-4-4-4-4-4-----4-4--4-0-|
|-----------4-4--4-4--4-4-|-----2-2-----2-2-2-2-2-2-----2-2--2---|
|
| Gtr III (Harmonica arr. for Gtr.)
| H         Q    A chord diagramE MajorE    A chord diagramE MajorE      a  Q    a  H            a  A chord diagramE MajorE    A chord diagramE MajorE
|--------------------12---|-12h14---12h14-----------12h14---12---|
|---------------14--------|--------------------------------------|
|-------------------------|--------------------------------------|
|-------------------------|--------------------------------------|
|-------------------------|--------------------------------------|
|-------------------------|--------------------------------------|

   A chord diagramE MajorE A chord diagramE MajorE  S S S S A chord diagramE MajorE S S  A chord diagramE MajorE  S S
|--0-0--0-0-0-0-0-0-0--0--0-0---|
|--2-2--2-2-2-2-2-2-2--2--2-2---|
|--2-2--2-2-2-2-2-2-2--2--2-2---|
|--2-2--2-2-2-2-2-2-2--2--2-2---|
|--0-0--0-0-0-0-0-0-0--0--0-0---|
|-------------------------------|
|
|  Q    H              A chord diagramE MajorE  A chord diagramE MajorE
|-12---------------------12-----|
|------14-------------14--------|
|-------------------------------|
|-------------------------------|
|-------------------------------|
|-------------------------------|


  A chord diagramF# minorF#m                          A chord diagramA augmentedA                A chord diagramA7A7
   A chord diagramE MajorE  A chord diagramE MajorE S S S S A chord diagramE MajorE A chord diagramE MajorE     S S  S S    A chord diagramE MajorE A chord diagramE MajorE S S S S A chord diagramE MajorE S S  S S  S S
|--2--2-2-2-2-2-2-2-----2-2--2-0-|--0-0-0-0-0-0-0-0-0--0-0--0-0-|
|--2--2-2-2-2-2-2-2-----2-2--2-2-|--2-2-2-2-2-2-2-2-2--2-2--2-2-|
|--2--2-2-2-2-2-2-2-----2-2--2-2-|--2-2-2-2-2-2-0-0-0--0-0--0-0-|
|--4--4-4-4-4-4-4-4-----4-4--4-2-|--2-2-2-2-2-2-2-2-2--2-2--2-2-|
|--4--4-4-4-4-4-4-4-----4-4--4-0-|--0-0-0-0-0-0-0-0-0--0-0--0-0-|
|--2--2-2-2-2-2-2-2-----2-2--2---|------------------------------|
|
|  H.                a  A chord diagramE MajorE    A chord diagramE MajorE      H           Q      A chord diagramE MajorE    A chord diagramE MajorE
|-14----------------12h14---12---|-12----------------------12---|
|--------------------------------|--------------------14--------|
|--------------------------------|------------------------------|
|--------------------------------|------------------------------|
|--------------------------------|------------------------------|
|--------------------------------|------------------------------|


     A chord diagramD MajorD
      A chord diagramE MajorE S S     A chord diagramE MajorE S S A chord diagramE MajorE S S     S S  S S
|-----2-2-2-----2-2-2-2-2-2-----2-2--2-2---|
|-----3-3-3-----3-3-3-3-3-3-----3-3--3-3---|
|-----2-2-2-----2-2-2-2-2-2-----2-2--2-2---|
|-----0-0-0-----0-0-0-0-0-0-----0-0--0-0---|
|------------------------------------------|
|------------------------------------------|
|
|  a  Q      a  H            a  A chord diagramE MajorE    A chord diagramE MajorE
|-12h14-----12h14-----------12h14---12-----|
|------------------------------------------|
|------------------------------------------|
|------------------------------------------|
|------------------------------------------|
|------------------------------------------|


  A chord diagramF# minorF#m                                 A chord diagramBB           A chord diagramA augmentedA A chord diagramD MajorD             A chord diagramA augmentedA
   A chord diagramE MajorE  A chord diagramE MajorE  S S S S   A chord diagramE MajorE  S S  S S  S S    A chord diagramE MajorE  A chord diagramE MajorE S S S S A chord diagramE MajorE S S  S S  S S
|--2--2--2-2-2-2---2--2-2--2-2--2-2-|-------------0-2-2-2--2-2--2-0-|
|--2--2--2-2-2-2---2--2-2--2-2--2-2-|--4--4-4-4-4-2-3-3-3--3-3--3-2-|
|--2--2--2-2-2-2---2--2-2--2-2--2-2-|--4--4-4-4-4-2-2-2-2--2-2--2-2-|
|--4--4--4-4-4-4---4--4-4--4-4--4-4-|--4--4-4-4-4-2-0-0-0--0-0--0-2-|
|--4--4--4-4-4-4---4--4-4--4-4--4-4-|--2--2-2-2-2-0---------------0-|
|--2--2--2-2-2-2---2--2-2--2-2--2-2-|-------------------------------|
|
|  A chord diagramE MajorE  Q.          +Q       A chord diagramE MajorE    A chord diagramE MajorE      H.                  A chord diagramE MajorE    A chord diagramE MajorE
|-12--------------------------------|-------------------------------|
|----14----------(14)-----14---14---|-12------------------12--------|
|-----------------------------------|--------------------------14---|
|-----------------------------------|-------------------------------|
|-----------------------------------|-------------------------------|
|-----------------------------------|-------------------------------|


                                1st Verse
                E/G#             A chord diagramF# minorF#m
   A chord diagramE MajorE  A chord diagramE MajorE S S S S A chord diagramE MajorE S S S S S S    Q  S S S S A chord diagramE MajorE S S S S S S
|--0--0-0-0-0-0---------------||-2--2-2-2-2-2-2-2-2-2-2-2----|
|--2--2-2-2-2-2-5-5-5-5-5-5-5-||-2--2-2-2-2-2-2-2-2-2-2-2----|
|--2--2-2-2-2-2-4-4-4-4-4-4-4-||-2--2-2-2-2-2-2-2-2-2-2-2----|
|--2--2-2-2-2-2-2-2-2-2-2-2-2-||-4--4-4-4-4-4-4-4-4-4-4-4----|
|--0--0-0-0-0-0---------------||-4--4-4-4-4-4-4-4-4-4-4-4----|
|---------------4-4-4-4-4-4-4-||-2--2-2-2-2-2-2-2-2-2-2-2----|
|
|  H.                 Q          W
|-----------------------------||-----------------------------|
|-----------------------------||-----------------------------|
|-14--------------------------||-----------------------------|
|-----------------------------||-----------------------------|
|-----------------------------||-----------------------------|
|-----------------------------||-----------------------------|


  A chord diagramA augmentedA                         A chord diagramF# minorF#m                   A chord diagramA augmentedA
  A chord diagramE MajorE A chord diagramE MajorE S S S S A chord diagramE MajorE A chord diagramE MajorE S S S S   A chord diagramE MajorE A chord diagramE MajorE S S S S A chord diagramE MajorE A chord diagramE MajorE S S S S
|-0-0-0-0-0-0-0-0-0-0-0-0-|-2-2-2-2-2-2-2-2-2-2-2-0-|
|-2-2-2-2-2-2-2-2-2-2-2-2-|-2-2-2-2-2-2-2-2-2-2-2-2-|
|-2-2-2-2-2-2-2-2-2-2-2-2-|-2-2-2-2-2-2-2-2-2-2-2-2-|
|-2-2-2-2-2-2-2-2-2-2-2-2-|-4-4-4-4-4-4-4-4-4-4-4-2-|
|-0-0-0-0-0-0-0-0-0-0-0-0-|-4-4-4-4-4-4-4-4-4-4-4-0-|
|-------------------------|-2-2-2-2-2-2-2-2-2-2-2---|


            A chord diagramA7A7          A chord diagramD MajorD
  A chord diagramE MajorE A chord diagramE MajorE A chord diagramE MajorE S S A chord diagramE MajorE S S S S S S   A chord diagramE MajorE S S S S S S A chord diagramE MajorE S S S S S S
|-0-0-0-0-0-0-0-0-0-0-0-2-|-2-2-2-2-2-2-2-2-2-2-2-2-2-2-|
|-2-2-2-2-2-2-2-2-2-2-2-3-|-3-3-3-3-3-3-3-3-3-3-3-3-3-3-|
|-2-2-2-2-2-0-0-0-0-0-0-2-|-2-2-2-2-2-2-2-2-2-2-2-2-2-2-|
|-2-2-2-2-2-2-2-2-2-2-2-0-|-0-0-0-0-0-0-0-0-0-0-0-0-0-0-|
|-0-0-0-0-0-0-0-0-0-0-0---|-----------------------------|
|-------------------------|-----------------------------|


  A chord diagramF# minorF#m                       A chord diagramBB         A chord diagramA augmentedA A chord diagramD MajorD
  A chord diagramE MajorE A chord diagramE MajorE S S S S A chord diagramE MajorE A chord diagramE MajorE S S S S   A chord diagramE MajorE A chord diagramE MajorE S S S S A chord diagramE MajorE S S S S S S
|-2-2-2-2-2-2-2-2-2-2-2-2-|-----------0-2-2-2-2-2-2-2-|
|-2-2-2-2-2-2-2-2-2-2-2-2-|-4-4-4-4-4-2-3-3-3-3-3-3-3-|
|-2-2-2-2-2-2-2-2-2-2-2-2-|-4-4-4-4-4-2-2-2-2-2-2-2-2-|
|-4-4-4-4-4-4-4-4-4-4-4-4-|-4-4-4-4-4-2-0-0-0-0-0-0-0-|
|-4-4-4-4-4-4-4-4-4-4-4-4-|-2-2-2-2-2-0---------------|
|-2-2-2-2-2-2-2-2-2-2-2-2-|---------------------------|
|
| Gtr II
| W                         W
|-------------------------|---------------------------|
|-------------------------|---------------------------|
|-------------------------|---------------------------|
|-------------------------|---------------------------|
|-------------------------|---------------------------|
|-------------------------|---------------------------|
|
| Gtr III (El. Gtr.)
| W                         W
|-------------------------|---------------------------|
|-------------------------|---------------------------|
|-------------------------|---------------------------|
|-------------------------|---------------------------|
|-------------------------|---------------------------|
|-------------------------|---------------------------|


  A chord diagramA augmentedA               A chord diagramC#7C#7
  A chord diagramE MajorE S S S S S S A chord diagramE MajorE A chord diagramE MajorE  S  S  S S
|-0-0-0-0-0-0-0-0-4--4--4--4-4-||
|-2-2-2-2-2-2-2-2-6--6--6--6-6-||
|-2-2-2-2-2-2-2-2-4--4--4--4-4-||
|-2-2-2-2-2-2-2-2-6--6--6--6-6-||
|-0-0-0-0-0-0-0-0-4--4--4--4-4-||
|------------------------------||
|
| H             A chord diagramE MajorE A chord diagramE MajorE +E.      S
|------------------------------||
|-----------------6-(6)--------||
|-----------------4-(4)--------||
|-----------------6-(6)--------||
|-----------------4-(4)------0-||
|------------------------------||
|
| H             Q    A chord diagramE MajorE     A chord diagramE MajorE
|-------------------------12---||
|-------------------14---------||
|------------------------------||
|------------------------------||
|------------------------------||
|------------------------------||


 2nd Verse
  A chord diagramF# minorF#m
   A chord diagramE MajorE S S  S S S S   A chord diagramE MajorE  S S  S  S  S S
|--2-2-2--2-2-2-2---2--2-2--2--2--2-2-|
|--2-2-2--2-2-2-2---2--2-2--2--2--2-2-|
|--2-2-2--2-2-2-2---2--2-2--2--2--2-2-|
|--4-4-4--4-4-4-4---4--4-4--4--4--4-4-|
|--4-4-4--4-4-4-4---4--4-4--4--4--4-4-|
|--2-2-2--2-2-2-2---2--2-2--2--2--2-2-|
|
|  Q      Q         A chord diagramE MajorE  A chord diagramE MajorE    Q
|-------------------------------------|
|---------2-----------------2---------|
|---------2---------------------------|
|---------4------------4--------------|
|-------------------------------------|
|--2----------------2-----------------|
|
|  Q      Q        +Q       S  S  A chord diagramE MajorE
|-14-----14-------(14)----------------|
|--------------------------14-12------|
|--------------------------------14---|
|-------------------------------------|
|-------------------------------------|
|-------------------------------------|


  A chord diagramA augmentedA                    A chord diagramC#7C#7            A chord diagramF# minorF#m
    A chord diagramE MajorE  S S S S S S  A chord diagramE MajorE  A chord diagramE MajorE  S  S  S S    A chord diagramE MajorE A chord diagramE MajorE  A chord diagramE MajorE S S   A chord diagramE MajorE  A chord diagramE MajorE  S  S  S S
|---0--0-0-0-0-0-0--0--4--4--4--4-4-|--2-2--2-2-2---2--2--2--2--2-2-|
|---2--2-2-2-2-2-2--2--6--6--6--6-6-|--2-2--2-2-2---2--2--2--2--2-2-|
|---2--2-2-2-2-2-2--2--4--4--4--4-4-|--2-2--2-2-2---2--2--2--2--2-2-|
|---2--2-2-2-2-2-2--2--6--6--6--6-6-|--4-4--4-4-4---4--4--4--4--4-4-|
|---0--0-0-0-0-0-0--0--4--4--4--4-4-|--4-4--4-4-4---4--4--4--4--4-4-|
|-----------------------------------|--2-2--2-2-2---2--2--2--2--2-2-|
|
|   Q      Q       +A chord diagramE MajorE  A chord diagramE MajorE +S  S  S S    Q    Q       A chord diagramE MajorE  A chord diagramE MajorE  Q
|----------5-------(5)--------------|-------------------------------|
|----------5-------(5)-6-(6)-6--6---|-------2-------------2---------|
|----------6-------(6)-4-(4)-4--4---|-------2----------2------------|
|----------7-------(7)-6-(6)-6--6-0-|-------4-------4---------------|
|---0------------------4-(4)-4--4---|-------------------------------|
|-----------------------------------|--2----------------------------|
|
|  +H.                    A chord diagramE MajorE     A chord diagramE MajorE      Q    Q      +Q     S  S  A chord diagramE MajorE
|------------------------------12---|-14---14-----(14)--------------|
|------------------------14---------|--------------------14-12-10---|
|-(14)------------------------------|-------------------------------|
|-----------------------------------|-------------------------------|
|-----------------------------------|-------------------------------|
|-----------------------------------|-------------------------------|


  A chord diagramA augmentedA           A chord diagramA7A7              A chord diagramD MajorD
   A chord diagramE MajorE  A chord diagramE MajorE A chord diagramE MajorE S S A chord diagramE MajorE S S S S S S   A chord diagramE MajorE S S S A chord diagramE MajorE S A chord diagramE MajorE S S S S S S
|--0--0-0-0-0-0-0-0-0-0-0-0-|-2-2-2-2-2-2-2-2-2-2-2-2-2-|
|--2--2-2-2-2-2-2-2-2-2-2-2-|-3-3-3-3-3-3-3-3-3-3-3-3-3-|
|--2--2-2-2-2-0-0-0-0-0-0-0-|-2-2-2-2-2-2-2-2-2-2-2-2-2-|
|--2--2-2-2-2-2-2-2-2-2-2-2-|-0-0-0-0-0-0-0-0-0-0-0-0-0-|
|--0--0-0-0-0-0-0-0-0-0-0-0-|---------------------------|
|---------------------------|---------------------------|
|
|  A chord diagramE MajorE  A chord diagramE MajorE Q     Q     Q         A chord diagramE MajorE A chord diagramE MajorE   Q     A chord diagramE MajorE A chord diagramE MajorE   A chord diagramE MajorE   S S
|---------------------------|-------2-----------2-------|
|-------2-------------------|-------3-----------3-----2-|
|-----2-------0-----0-------|---2-----------2-------2-2-|
|-----2-------2-----2-------|-0-----------0-----------4-|
|--0----------0-----0-------|---------------------------|
|---------------------------|---------------------------|
|
|  H.               Q         W
|---------------------------|---------------------------|
|-10------------------------|---------------------------|
|---------------------------|---------------------------|
|---------------------------|---------------------------|
|---------------------------|---------------------------|
|---------------------------|---------------------------|


  A chord diagramF# minorF#m                     A chord diagramB7B7
  A chord diagramE MajorE A chord diagramE MajorE S A chord diagramE MajorE S  A chord diagramE MajorE  A chord diagramE MajorE A chord diagramE MajorE S S   A chord diagramE MajorE A chord diagramE MajorE A chord diagramE MajorE S S A chord diagramE MajorE A chord diagramE MajorE A chord diagramE MajorE S S
|-2-2-2-2-2--2--2-2-2-2-|-2-2-2-2-2-2-2-2-2-2--|
|-2-2-2-2-2--2--2-2-2-2-|-4-4-4-4-4-4-4-4-4-4--|
|-2-2-2-2-2--2--2-2-2-2-|-2-2-2-2-2-2-2-2-2-2--|
|-4-4-4-4-4--4--4-4-4-4-|-4-4-4-4-4-4-4-4-4-4--|
|-4-4-4-4-4--4--4-4-4-4-|-2-2-2-2-2-2-2-2-2-2--|
|-2-2-2-2-2--2--2-2-2-2-|----------------------|
|
| A chord diagramE MajorE A chord diagramE MajorE Q     +A chord diagramE MajorE  A chord diagramE MajorE Q       A chord diagramE MajorE A chord diagramE MajorE Q     A chord diagramE MajorE A chord diagramE MajorE Q
|-----2-----(2)---2-----|----------------------|
|-2---2-----(2)---2-----|-----4---------4------|
|-2-2-----------2-------|-----4---------4------|
|-4---------------------|---4---------4--------|
|-----------------------|-2---------2----------|
|-----------------------|----------------------|
|
| W                       W
|-----------------------|----------------------|
|-----------------------|----------------------|
|-----------------------|----------------------|
|-----------------------|----------------------|
|-----------------------|----------------------|
|-----------------------|----------------------|


                         3rd Verse
  A chord diagramD MajorD    A chord diagramA augmentedA       E/G#       A chord diagramF# minorF#m
  A chord diagramE MajorE Q  A chord diagramE MajorE +Q    S S S S    Q  Q          A chord diagramE MajorE    A chord diagramE MajorE     A chord diagramE MajorE    A chord diagramE MajorE
|-2-2--0-(0)-----------||-2--2----------2----2-----2----2-|
|-3-3--2-(2)---5-5-5-5-||-2--2----------2----2-----2----2-|
|-2-2--2-(2)---4-4-4-4-||-2--2----------2----2-----2----2-|
|-0-0--2-(2)---2-2-2-2-||-4--4----------4----4-----4----4-|
|------0-(0)-----------||-4--4----------4----4-----4----4-|
|--------------4-4-4-4-||-2--2----------2----2-----2----2-|
|
|                                                  ~~~~~
| A chord diagramE MajorE Q  A chord diagramE MajorE +A chord diagramE MajorE  A chord diagramE MajorE Q          Q  A chord diagramE MajorE  A chord diagramE MajorE      +A chord diagramE MajorE    S  S  Q
|-5--------------------||---------------------------------|
|---7--2-(2)-----------||------17b19==(17)r-17p14-17b19---|
|---7--2-(2)-2---------||---------------------------------|
|-0----2-(2)-2---------||---------------------------------|
|------0-(0)-----------||---------------------------------|
|--------------4-------||-2-------------------------------|


  A chord diagramA augmentedA                       A chord diagramF# minorF#m
  A chord diagramE MajorE A chord diagramE MajorE A chord diagramE MajorE S S A chord diagramE MajorE A chord diagramE MajorE   S S A chord diagramE MajorE   A chord diagramE MajorE A chord diagramE MajorE A chord diagramE MajorE  S     S   A chord diagramE MajorE    A chord diagramE MajorE     A chord diagramE MajorE    S S
|-0-0-0-0-0-0-0---0-0-0-|-2-2-2--2-----2---2----2-----2----2-2---|
|-2-2-2-2-2-2-2---2-2-2-|-2-2-2--2-----2---2----2-----2----2-2---|
|-2-2-2-2-2-2-2---2-2-2-|-2-2-2--2-----2---2----2-----2----2-2---|
|-2-2-2-2-2-2-2---2-2-2-|-4-4-4--4-----4---4----4-----4----4-4---|
|-0-0-0-0-0-0-0---0-0-0-|-4-4-4--4-----4---4----4-----4----4-4---|
|-----------------------|-2-2-2--2-----2---2----2-----2----2-2---|
|
|                                                     ~~~~~
| A chord diagramE MajorE A chord diagramE MajorE A chord diagramE MajorE A chord diagramE MajorE   A chord diagramE MajorE S S A chord diagramE MajorE   A chord diagramE MajorE   Q   A chord diagramE MajorE  A chord diagramE MajorE        +A chord diagramE MajorE    S  S  Q
|-----5-----------------|----------------------------------------|
|-----2-----------------|-------17b19====(17)r-17p14-17b19-------|
|-----2-2-----2-2-------|----------------------------------------|
|---2---------2-2-------|----------------------------------------|
|-0---------0-----------|----------------------------------------|
|-----------------4---0-|-2--------------------------------------|


  A chord diagramA augmentedA         A chord diagramA7A7         A chord diagramD MajorD
  A chord diagramE MajorE A chord diagramE MajorE A chord diagramE MajorE S S  A chord diagramE MajorE A chord diagramE MajorE A chord diagramE MajorE A chord diagramE MajorE   A chord diagramE MajorE A chord diagramE MajorE S S S S A chord diagramE MajorE S S S S A chord diagramE MajorE
|-0-0-0-0-0--0-0-0-0-|-2-2-2-2-2-2-2-2-2-2-2-2-|
|-2-2-2-2-2--2-2-2-2-|-3-3-3-3-3-3-3-3-3-3-3-3-|
|-2-2-2-2-2--0-0-0-0-|-2-2-2-2-2-2-2-2-2-2-2-2-|
|-2-2-2-2-2--2-2-2-2-|-0-0-0-0-0-0-0-0-0-0-0-0-|
|-0-0-0-0-0--0-0-0-0-|-------------------------|
|--------------------|-------------------------|
|
| A chord diagramE MajorE A chord diagramE MajorE Q      Q   Q     Q   A chord diagramE MajorE   A chord diagramE MajorE   A chord diagramE MajorE A chord diagramE MajorE   Q
|--------------------|---------2---------2-----|
|-----2-----/5---5---|-----3---------3---------|
|-----2--------------|-------------------------|
|---2-------/5---5---|-0-----------0-----------|
|-0------------------|-------------------------|
|--------------------|-------------------------|


  A chord diagramF# minorF#m                         A chord diagramB7B7
  A chord diagramE MajorE A chord diagramE MajorE S S S S  A chord diagramE MajorE  A chord diagramE MajorE S S S S   Q   A chord diagramE MajorE  S S Q   A chord diagramE MajorE A chord diagramE MajorE
|-2-2-2-2-2-2--2--2-2-2-2-2-|-2---2--2-2-2---2-2--|
|-2-2-2-2-2-2--2--2-2-2-2-2-|-4---4--4-4-3---3-3--|
|-2-2-2-2-2-2--2--2-2-2-2-2-|-2---2--2-2-2---2-2--|
|-4-4-4-4-4-4--4--4-4-4-4-4-|-4---4--4-4-0---0-0--|
|-4-4-4-4-4-4--4--4-4-4-4-4-|-2---2--2-2----------|
|-2-2-2-2-2-2--2--2-2-2-2-2-|---------------------|
|
| Q   Q       +A chord diagramE MajorE  A chord diagramE MajorE Q         A chord diagramE MajorE A chord diagramE MajorE E.   S A chord diagramE MajorE A chord diagramE MajorE A chord diagramE MajorE A chord diagramE MajorE
|-----2-------(2)---2-------|----------------2----|
|-----2-------(2)---2-------|-----4----------3----|
|-----------------2---------|-----4--------2------|
|---------------------------|---4--------0-----0--|
|---------------------------|-2--------4----------|
|-2-------------------------|---------------------|


                        Bridge
  A chord diagramA augmentedA                      A chord diagramC# minorC#m           A chord diagramA augmentedA
  Gtr I
  A chord diagramE MajorE S S A chord diagramE MajorE S S A chord diagramE MajorE A chord diagramE MajorE A chord diagramE MajorE A chord diagramE MajorE     E. S S S S S  A chord diagramE MajorE A chord diagramE MajorE S S A chord diagramE MajorE
|-0-0-0-0-0-0-0-0-0-0-||--4--4-4-4-4-4--0-0-0-0-0-|
|-2-2-2-2-2-2-2-2-2-2-||--5--5-5-5-5-5--2-2-2-2-2-|
|-2-2-2-2-2-2-2-2-2-2-||--6--6-6-6-6-6--2-2-2-2-2-|
|-2-2-2-2-2-2-2-2-2-2-||--6--6-6-6-6-6--2-2-2-2-2-|
|-0-0-0-0-0-0-0-0-0-0-||--4--4-4-4-4-4--0-0-0-0-0-|
|---------------------||--------------------------|
|
| Gtr II                 Gtr IV (Ac. Gtr.)
| A chord diagramE MajorE A chord diagramE MajorE   A chord diagramE MajorE A chord diagramE MajorE   A chord diagramE MajorE A chord diagramE MajorE A chord diagramE MajorE A chord diagramE MajorE     H             H
|---------------------||--------------------------|
|-------------2---2---||-^5-----------------------|
|---2-----2---2---2---||-^6-----------------------|
|-2-----2-----2-2-2-2-||-^6-----------------------|
|-0-----0-----0---0---||-^4-----------------------|
|---------------------||--------------------------|
|
| Gtr III
| W                       H             H
|---------------------||-12-----------------------|
|---------------------||---------------14---------|
|---------------------||--------------------------|
|---------------------||--------------------------|
|---------------------||--------------------------|
|---------------------||--------------------------|


  A chord diagramD MajorD             Dsus2/C#        A chord diagramB minorBm
   E. S S S S S A chord diagramE MajorE S S S S S S    A chord diagramE MajorE S S S S S S A chord diagramE MajorE S S S S S S
|--2--2-2-2-2-2-0-0-0-0-0-0-0-|--2-2-2-2-2-2-2-2-2-2-2-2-2-2---|
|--3--3-3-3-3-3-3-3-3-3-3-3-3-|--3-3-3-3-3-3-3-3-3-3-3-3-3-3---|
|--2--2-2-2-2-2-2-2-2-2-2-2-2-|--4-4-4-4-4-4-4-4-4-4-4-4-4-4---|
|--0--0-0-0-0-0---------------|--4-4-4-4-4-4-4-4-4-4-4-4-4-4---|
|---------------4-4-4-4-4-4-4-|--2-2-2-2-2-2-2-2-2-2-2-2-2-2---|
|-----------------------------|--------------------------------|
|
|  H            H                H             H
|-----------------------------|-^7-----------------------------|
|-^7--------------------------|-^7-----------------------------|
|-^7--------------------------|-^7-----------------------------|
|-^7--------------------------|-^9-----------------------------|
|-^5--------------------------|--------------------------------|
|-----------------------------|--------------------------------|
|
|  W                             W
|-----------------------------|--------------------------------|
|-----------------------------|-12-----------------------------|
|-14--------------------------|--------------------------------|
|-----------------------------|--------------------------------|
|-----------------------------|--------------------------------|
|-----------------------------|--------------------------------|


  A chord diagramF# minorF#m
   Q  S S S S   A chord diagramE MajorE    S S S S S S
|--2--2-2-2-2---2----2-2-2-2-2-2-|
|--2--2-2-2-2---2----2-2-2-2-2-2-|
|--2--2-2-2-2---2----2-2-2-2-2-2-|
|--4--4-4-4-4---4----4-4-4-4-4-4-|
|--4--4-4-4-4---4----4-4-4-4-4-4-|
|--2--2-2-2-2---2----2-2-2-2-2-2-|
|
| Gtr II
|  H            S  S S S S S A chord diagramE MajorE
|--------------------------------|
|--------------------------------|
|--------------------------------|
|--------------------------------|
|---------------4s=3s4s3-4s3s4---|
|---------------2s=1s2s1-2s1s2---|
|
|  H           +H
|--------------------------------|
|--------------------------------|
|-11----------(11)---------------|
|--------------------------------|
|--------------------------------|
|--------------------------------|


  A chord diagramA augmentedA            A chord diagramB minorBm     A chord diagramA/C#A/C#     A chord diagramD MajorD              Dsus2/C#
   A chord diagramE MajorE A chord diagramE MajorE S S S S  A chord diagramE MajorE S S  S S A chord diagramE MajorE    A chord diagramE MajorE S S S S S S A chord diagramE MajorE S S S S A chord diagramE MajorE
|--0-0-0-0-0-0--2-2-2--0-0-0-|--2-2-2-2-2-2-2-0-0-0-0-0-0---|
|--2-2-2-2-2-2--3-3-3--2-2-2-|--3-3-3-3-3-3-3-3-3-3-3-3-3---|
|--2-2-2-2-2-2--4-4-4--2-2-2-|--2-2-2-2-2-2-2-2-2-2-2-2-2---|
|--2-2-2-2-2-2--4-4-4--2-2-2-|--0-0-0-0-0-0-0---------------|
|--0-0-0-0-0-0--2-2-2--4-4-4-|----------------4-4-4-4-4-4---|
|----------------------------|------------------------------|
|
|  A chord diagramE MajorE A chord diagramE MajorE Q        A chord diagramE MajorE A chord diagramE MajorE    Q        A chord diagramE MajorE A chord diagramE MajorE   A chord diagramE MajorE   S S A chord diagramE MajorE A chord diagramE MajorE   A chord diagramE MajorE   A chord diagramE MajorE
|------5---------------5-----|--------2-------------2-------|
|----------------------------|------------------------------|
|----6------------6----------|----2---------2---2-------2---|
|----------------------------|--0---------0---4-------------|
|--0-------------------------|------------------------------|
|---------------7------------|------------------------------|
|
|  H            Q      Q        W
|-12-------------------------|------------------------------|
|--------------14-----12-----|-10---------------------------|
|----------------------------|------------------------------|
|----------------------------|------------------------------|
|----------------------------|------------------------------|
|----------------------------|------------------------------|


  A chord diagramB minorBm                         A chord diagramE MajorE              A chord diagramC#7C#7
   Q   A chord diagramE MajorE S S S A chord diagramE MajorE   S S S A chord diagramE MajorE    A chord diagramE MajorE  S S A chord diagramE MajorE  S S   A chord diagramE MajorE  A chord diagramE MajorE A chord diagramE MajorE A chord diagramE MajorE
|--2---2-2-2-2-2---2-2-2-2-|--0--0-0-0--0-0---4--4-4-4-||
|--3---3-3-3-3-3---3-3-3-3-|--0--0-0-0--0-0---6--6-6-6-||
|--4---4-4-4-4-4---4-4-4-4-|--1--1-1-1--1-1---4--4-4-4-||
|--4---4-4-4-4-4---4-4-4-4-|--2--2-2-2--2-2---6--6-6-6-||
|--2---2-2-2-2-2---2-2-2-2-|--2--2-2-2--2-2---4--4-4-4-||
|--------------------------|--0--0-0-0--0-0------------||
|
|  A chord diagramE MajorE A chord diagramE MajorE A chord diagramE MajorE A chord diagramE MajorE   A chord diagramE MajorE   A chord diagramE MajorE   A chord diagramE MajorE   A chord diagramE MajorE    A chord diagramE MajorE  A chord diagramE MajorE   A chord diagramE MajorE  A chord diagramE MajorE     A chord diagramE MajorE  A chord diagramE MajorE A chord diagramE MajorE A chord diagramE MajorE
|------2-------------------|---------------------------||
|--------------------3-----|-----------------------2---||
|----4---4-------4---------|---------1-----------4---4-||
|------------------------4-|-----2------2-----3--------||
|--2---------2-------------|---------------------------||
|--------------------------|--0------------------------||
|
|  W                          Q.        A chord diagramE MajorE    +Q    Q
|--------------------------|-12--------13---(13)-------||
|-12-----------------------|---------------------------||
|--------------------------|---------------------------||
|--------------------------|---------------------------||
|--------------------------|---------------------------||
|--------------------------|---------------------------||


 4th Verse
  A chord diagramF# minorF#m                                  A chord diagramA augmentedA
  A chord diagramE MajorE A chord diagramE MajorE A chord diagramE MajorE  S     S   A chord diagramE MajorE    A chord diagramE MajorE     A chord diagramE MajorE    A chord diagramE MajorE   A chord diagramE MajorE A chord diagramE MajorE A chord diagramE MajorE S S A chord diagramE MajorE   A chord diagramE MajorE   A chord diagramE MajorE   A chord diagramE MajorE
|-2-2-2--2-----2---2----2-----2----2-|-0-0-0-0-0-0---0---0---0---|
|-2-2-2--2-----2---2----2-----2----2-|-2-2-2-2-2-2---2---2---2---|
|-2-2-2--2-----2---2----2-----2----2-|-2-2-2-2-2-2---2---2---2---|
|-4-4-4--4-----4---4----4-----4----4-|-2-2-2-2-2-2---2---2---2---|
|-4-4-4--4-----4---4----4-----4----4-|-0-0-0-0-0-0---0---0---0---|
|-2-2-2--2-----2---2----2-----2----2-|---------------------------|
|
|                             ~~~~~
|                                                |--3--| |3|
| Q   A chord diagramE MajorE  A chord diagramE MajorE        +A chord diagramE MajorE    S  S  Q        A chord diagramE MajorE A chord diagramE MajorE A chord diagramE MajorE A chord diagramE MajorE   A chord diagramE MajorE A chord diagramE MajorE   A chord diagramE MajorE A chord diagramE MajorE Q
|------------------------------------|---------------------------|
|-------17b19====(17)r-17p14-17b19---|-----2---------------------|
|------------------------------------|-----2-2-----------2-------|
|------------------------------------|---2-------------2---4-----|
|------------------------------------|-0---------0-4-------------|
|-2----------------------------------|---------------------------|
|
| W                                    W
|------------------------------------|---------------------------|
|------------------------------------|---------------------------|
|------------------------------------|---------------------------|
|------------------------------------|---------------------------|
|------------------------------------|---------------------------|
|------------------------------------|---------------------------|


  A chord diagramF# minorF#m                                A chord diagramA augmentedA         BsusC#m7
  Q   A chord diagramE MajorE  A chord diagramE MajorE       A chord diagramE MajorE    A chord diagramE MajorE     A chord diagramE MajorE    A chord diagramE MajorE   A chord diagramE MajorE A chord diagramE MajorE A chord diagramE MajorE S S A chord diagramE MajorE A chord diagramE MajorE A chord diagramE MajorE A chord diagramE MajorE
|-2---2--2-------2----2-----2----2-|-0-0-0-0-0-----4-4-|
|-2---2--2-------2----2-----2----2-|-2-2-2-2-2-5-5-5-5-|
|-2---2--2-------2----2-----2----2-|-2-2-2-2-2-4-4-4-4-|
|-4---4--4-------4----4-----4----4-|-2-2-2-2-2-4-4-6-6-|
|-4---4--4-------4----4-----4----4-|-0-0-0-0-0-2-2-4-4-|
|-2---2--2-------2----2-----2----2-|-------------------|
|
|                           ~~~~~
| Q.     A chord diagramE MajorE      +A chord diagramE MajorE    S  S  Q        A chord diagramE MajorE A chord diagramE MajorE A chord diagramE MajorE A chord diagramE MajorE   Q   Q
|----------------------------------|-------------------|
|-------17b19==(17)r-17p14-17b19---|-----2-----5---5---|
|----------------------------------|-----2-----4---4---|
|----------------------------------|---2---2-----------|
|----------------------------------|-0---------2---4---|
|-2--------------------------------|-------------------|


  A chord diagramD MajorD                     A chord diagramF# minorF#m
  A chord diagramE MajorE A chord diagramE MajorE A chord diagramE MajorE A chord diagramE MajorE A chord diagramE MajorE S S A chord diagramE MajorE S S   A chord diagramE MajorE S S A chord diagramE MajorE S S A chord diagramE MajorE S S A chord diagramE MajorE S S
|-2-2-2-2-2-2-2-2-2-2-|-2-2-2-2-2-2-2-2-2-2-2-2-|
|-3-3-3-3-3-3-3-3-3-3-|-2-2-2-2-2-2-2-2-2-2-2-2-|
|-2-2-2-2-2-2-2-2-2-2-|-2-2-2-2-2-2-2-2-2-2-2-2-|
|-0-0-0-0-0-0-0-0-0-0-|-4-4-4-4-4-4-4-4-4-4-4-4-|
|---------------------|-4-4-4-4-4-4-4-4-4-4-4-4-|
|---------------------|-2-2-2-2-2-2-2-2-2-2-2-2-|
|
| A chord diagramE MajorE A chord diagramE MajorE A chord diagramE MajorE A chord diagramE MajorE A chord diagramE MajorE A chord diagramE MajorE   Q       A chord diagramE MajorE A chord diagramE MajorE   A chord diagramE MajorE A chord diagramE MajorE   A chord diagramE MajorE A chord diagramE MajorE   A chord diagramE MajorE A chord diagramE MajorE
|-----2---------2-----|-------2-----------2-----|
|---3---3---3---------|---2-----------------2---|
|---------------------|---------2-----2---------|
|-0-------0-----------|-------------------------|
|---------------------|-------------------------|
|---------------------|-2-----------2-----------|


                                                 Outro
  A chord diagramB7B7          A chord diagramE MajorE           A chord diagramA augmentedA        E/G#           A chord diagramF# minorF#m       A chord diagramA augmentedA
  A chord diagramE MajorE S S A chord diagramE MajorE S S A chord diagramE MajorE A chord diagramE MajorE A chord diagramE MajorE S S   Q  A chord diagramE MajorE S S A chord diagramE MajorE S S A chord diagramE MajorE S S    A chord diagramE MajorE A chord diagramE MajorE A chord diagramE MajorE S S A chord diagramE MajorE    A chord diagramE MajorE A chord diagramE MajorE   S S
|-2-2-2-2-2-2-0-0-0-0-0-|-0--0-0-0-------------||-2-2-2-2-2-0----0-0---0-0-|
|-4-4-4-4-4-4-0-0-0-0-0-|-2--2-2-2-5-5-5-5-5-5-||-2-2-2-2-2-2----2-2---2-2-|
|-2-2-2-2-2-2-1-1-1-1-1-|-2--2-2-2-4-4-4-4-4-4-||-2-2-2-2-2-2----2-2---2-2-|
|-4-4-4-4-4-4-2-2-2-2-2-|-2--2-2-2-2-2-2-2-2-2-||-4-4-4-4-4-2----2-2---2-2-|
|-2-2-2-2-2-2-2-2-2-2-2-|-0--0-0-0-------------||-4-4-4-4-4-0----0-0---0-0-|
|-------------0-0-0-0-0-|----------4-4-4-4-4-4-||-2-2-2-2-2----------------|
|
|         PM|
| A chord diagramE MajorE A chord diagramE MajorE   A chord diagramE MajorE s s A chord diagramE MajorE A chord diagramE MajorE Q       Q  Q     Q     Q        A chord diagramE MajorE Q   S S S E.   S S S S
|-------2---------0-----|----------------------||--------------------------|
|-------4---------0-----|-2--2-----5-----5-----||-------2h3-3s5----2-------|
|---4-----------1-------|-2--2-----4-----4-----||---2---2h4-4s6------4-2---|
|-----------------------|-2--2-----2-----2-----||---4--------------------4-|
|-2---------------------|-0--0-----------------||--------------------------|
|---------0-0-0---------|----------4-----4-----||-2------------------------|


  A chord diagramD MajorD           A chord diagramA/C#A/C#          A chord diagramB minorBm          A chord diagramE MajorE           A chord diagramF# minorF#m
  A chord diagramE MajorE S S A chord diagramE MajorE S S A chord diagramE MajorE S S A chord diagramE MajorE S S   A chord diagramE MajorE S S A chord diagramE MajorE S S A chord diagramE MajorE S S A chord diagramE MajorE A chord diagramE MajorE    W          +W
|-2-2-2-2-2-2-0-0-0-0-0-0-|-2-2-2-2-2-2-0-0-0-0-0-|--2--------|-(2)----*|
|-3-3-3-3-3-3-2-2-2-2-2-2-|-3-3-3-3-3-3-0-0-0-0-0-|--2--------|-(2)----*|
|-2-2-2-2-2-2-2-2-2-2-2-2-|-4-4-4-4-4-4-1-1-1-1-1-|--2--------|-(2)----*|
|-0-0-0-0-0-0-2-2-2-2-2-2-|-4-4-4-4-4-4-2-2-2-2-2-|--4--------|-(4)----*|
|-------------4-4-4-4-4-4-|-2-2-2-2-2-2-2-2-2-2-2-|--4--------|-(4)----*|
|-------------------------|-------------0-0-0-0-0-|--2--------|-(2)----*|
|
| Q     Q     Q     Q       Q     Q     Q     A chord diagramE MajorE A chord diagramE MajorE    W          +W
|-------------------------|-------------0-----0---|-^2--------|-(2)----*|
|-3-----3-----2-----2-----|-3-----3-----0-----0---|-^2--------|-(2)----*|
|-2-----2-----2-----2-----|-4-----4-----1-----1---|-^2--------|-(2)----*|
|-0-----0-----------------|-4-----4-----2-----2---|-^4--------|-(4)----*|
|-------------4-----4-----|-2-----2-----2-----2---|-^4--------|-(4)----*|
|-------------------------|-------------0-----0-0-|-^2--------|-(2)----*|


Duration 🏷Legend
---------------
W - whole; H - half; Q - quarter; A chord diagramE MajorE - 8th; S - 16th; T - 32nd; X - 64th; a - acciaccatura
+ - note tied to previous; . - note dotted; .. - note double dotted
Uncapitalized letters represent notes that are staccato (1/2 duration)
Irregular groupings are notated above the duration line
Duration letters will always appear directly above the note/fret number it represents the
duration for.  Duration letters with no fret number below them represent rests.  Multi-
bar rests are notated in the form Wxn, where n is the number of bars to rest for.  Low
melody durations appear below the staff

Tablature 🏷Legend
----------------
 h   - hammer-on
 p   - pull-off
 b   - bend
 pb  - pre-bend
 r   - bend release (if no number after the r, then release immediately)
 /\  - slide into or out of (from/to "nowhere")
 s   - legato slide
 S   - shift slide
  - natural harmonic
n:  - artificial harmonic
n(n) - tapped harmonic
 ~   - vibrato
 tr  - trill
 T   - tap
 TP  - trem. picking
 PM  - palm muting
\n/  - tremolo bar dip; n = amount to dip
 \n  - tremolo bar down
 n/  - tremolo bar up
/n\  - tremolo bar inverted dip
 =   - hold bend; also acts as connecting device for hammers/pulls
 <>  - volume swell (louder/softer)
 x   - on rhythm slash represents muted slash
 o   - on rhythm slash represents single note slash

Misc 🏷Legend
-----------
 |  - bar
||  - double bar
||o - repeat start
o|| - repeat end
*|  - double bar (ending)
 :  - bar (freetime)
 $  - Segno
 &  - Coda
Tempo markers -  = BPM(8/16=s8/s16), where s8 = swing 8ths, s16 = swing 16ths

Other versions of Doolin-dalton

Doolin-daltonChords
Doolin-dalton desperado repriseChords

Almost there ...

Sign in to get your own page with links to favourite songs and more. You are just one click away...

Login with Facebook Login with Google