Log in

One click and you are in

Login with Facebook Login with Google

Why sign up and log in

Guitar Tabs Explorer
Bob Dylan bass tabs for Like a rolling stone

Bass tabs

g---------------------------------------------
d---------------------------------------------
a--33--55--77--88--10-10-10-10----------------
e---------------------------------------------
                       2x

g---------------------------------------------
d---------------------------------------------
a---888---10-10-10----888---10-10-10----------
e---------------------------------------------

        bridge
g---------------------------------------------
d---------------------------------------------
a-88---77---55---33---88---77---55---33-------
e---------------------------------------------

g---------------------------------------------
d---------------------------------------------
a----------------555---888---10-10-10---------
e---------------------------------------------

      chourus
g---------------------------------------------
d-------5--3--555-----------------------------
a---33----------------------------------------
e---------------------------------------------
                      6x


verse

bridge
chourus


verse

bridge
chourus


verse

bridge
chourus

Almost there ...

Sign in to get your own page with links to favourite songs and more. You are just one click away...

Login with Facebook Login with Google