Log in

One click and you are in

Login with Facebook Login with Google

Why sign up and log in

Guitar Tabs Explorer
Bob Dylan bass tabs for Hurricane

Bass tabs

Bob Dylan
Hurricane
Bass tab

I can't guarantee this is what Rob Stoner plays but it sounds ok and it fits.
On the last instrumental verse there's quite a bit of improvising, this a basic
framework, i think!
Given the chords to make it easier to follow

Guitar intro, then bass joins in

 Am     F      Am     F
G----------------------------------------5--2---------
D--------7----3-----3-----------7-----3--------3------
A-----7----7-----3-----3-----7-----7------------------
E--5----------------------5---------------------------
All verses

  Am     F      Am     F
G-----------------------------------------------------
D--------7-----3-----3-----------7-----3-----3--------
A-----7-----7-----3-----3-----7-----7-----3-----3-----
E--5-----------------------5--------------------------

  Am     F      Am     F
G-----------------------------------------5--2--------
D--------7-----3-----3-----------7-----3--------3-----
A-----7-----7-----3-----3-----7-----7-----------------
E--5-----------------------5--------------------------


  C      F      C      F
G----------------------------------------------
D--------------3-----------------------3-------
A--3-----------------------3-------------------
E----------------------------------------------

  Dm     C      Dm     c   Em/B
G--------7-----------5-----------7--------5-----4----
D-----7-----7-----5-----5-----7-----7----------------
A--5-----------3-----------5-----------3-----2-------
E----------------------------------------------------


  Am  F   C   G
G-----2-----------5--0-----0-------------------------
D--------3--3-----------2-----3--2--0----------------
A--0-----------3-------------------------------------
E----------------------------------------------------


Tabbed by Neal
sickbed@hotmail.com
www.bottleofsmoke.bravehost.com

Almost there ...

Sign in to get your own page with links to favourite songs and more. You are just one click away...

Login with Facebook Login with Google