Log in

One click and you are in

Login with Facebook Login with Google

Why sign up and log in

Guitar Tabs Explorer
Bob Dylan guitar chords for Dont think twice its all right ukulele

Don't Think Twice Its All Right Ukulele chords by Bob Dylan

Bob Dylan guitar chords for Dont think twice its all right ukulele

Guitar chords

Intro:
  F        C       Dm        Bb
A|-----------------------0h1-1p0-----------------------------------|
E|---1---1---1---1---0-----------1---1---1---1---1---1---1---1---1-|
C|-----0-------0-------0---------------2-------2-------2-------2---|
G|-2-------2-------0---------------2-------2-------3-------3-------|

  F        C        F
A|-----------------------0h1-1p0-----------------------------------|
E|---1---1---1---1---0-----------1---1---1---1---1---1---1---1---1-|
C|-----0-------0-------0---------------0-------0-------0-------0---|
G|-2-------2-------0---------------2-------2-------2-------2-------|

Verse 1:
  F        C        Dm
A|-----------------------------------------------------------------|
E|---1---1---1---1---0---0---0---0---1---1---1---1---1---1---1---1-|
C|-----0-------0-------0-------0-------2-------2-------2-------2---|
G|-2-------2-------0-------0-------2-------2-------2-------2-------|

  Bb               F        C
A|-------------------------------------------------------0h1-1p0---|
E|---1---1---1---1---1---1---1---1---1---1---1---1---0-------------|
C|-----2-------2-------2-------2-------0-------0-------0-----------|
G|-3-------3-------3-------3-------2-------2-------0---------------|

  F
A|---------------------------------|
E|---1---1---1---1---1---1---1---1-|
C|-----0-------0-------0-------0---|
G|-2-------2-------2-------2-------|

  F        C        Dm
A|------------------------------------------------------------------|
E|---1---1---1---1---0---0---0---0---1---1---1---1---1---1---1---1--|
C|-----0-------0-------0-------0-------2-------2-------2-------2----|
G|-2-------2-------0-------0-------2-------2-------2-------2--------|

  G7               C
A|------------------------------------------------------------------|
E|---1---1---1---1---1---1---1---1---0---0---0---0---0---0---0---0--|
C|-----2-------2-------2-------2-------0-------0-------0-------0----|
G|-0-------0-------0-------0-------0-------0-------0-------0--------|

  F                F7
A|------------------------------------------------------------------|
E|---1---1---1---1---1---1---1---1---1---1---1---1---1---1---1---1--|
C|-----0-------0-------0-------0-------3-------3-------3-------3----|
G|-2-------2-------2-------2-------2-------2-------2-------2--------|

  Bb               G7
A|------------------------------------------------------------------|
E|---1---1---1---1---1---1---1---1---1---1---1---1---1---1---1---1--|
C|-----2-------2-------2-------2-------2-------2-------2-------2----|
G|-3-------3-------3-------3-------0-------0-------0-------0--------|

  F        C        Dm
A|------------------------------------------------------------------|
E|---1---1---1---1---0---0---0---0---1---1---1---1---1---1---1---1--|
C|-----0-------0-------0-------0-------2-------2-------2-------2----|
G|-2-------2-------0-------0-------2-------2-------2-------2--------|

  Bb       C        F
A|---------------------------------|
E|---1---1---1---1---0---0---0---0-|
C|-----0-------0-------0-------0---|
G|-2-------2-------0-------0-------|

  F        C       Dm        Bb
A|-----------------------0h1-1p0-----------------------------------|
E|---1---1---1---1---0-----------1---1---1---1---1---1---1---1---1-|
C|-----0-------0-------0---------------2-------2-------2-------2---|
G|-2-------2-------0---------------2-------2-------3-------3-------|

  F        C        F
A|-----------------------0h1-1p0-----------------------------------|
E|---1---1---1---1---0-----------1---1---1---1---1---1---1---1---1-|
C|-----0-------0-------0---------------0-------0-------0-------0---|
G|-2-------2-------0---------------2-------2-------2-------2-------|

You'll notice that the end of the verse is the beginning of the intro.
The song basically repeats intro-verse-intro-verse for all 4 verses.
I added the rest of the verses below for the auto scroll folks :)

Verse2:
  F        C        Dm
A|-----------------------------------------------------------------|
E|---1---1---1---1---0---0---0---0---1---1---1---1---1---1---1---1-|
C|-----0-------0-------0-------0-------2-------2-------2-------2---|
G|-2-------2-------0-------0-------2-------2-------2-------2-------|

  Bb               F        C
A|-------------------------------------------------------0h1-1p0---|
E|---1---1---1---1---1---1---1---1---1---1---1---1---0-------------|
C|-----2-------2-------2-------2-------0-------0-------0-----------|
G|-3-------3-------3-------3-------2-------2-------0---------------|

  F
A|---------------------------------|
E|---1---1---1---1---1---1---1---1-|
C|-----0-------0-------0-------0---|
G|-2-------2-------2-------2-------|

  F        C        Dm
A|------------------------------------------------------------------|
E|---1---1---1---1---0---0---0---0---1---1---1---1---1---1---1---1--|
C|-----0-------0-------0-------0-------2-------2-------2-------2----|
G|-2-------2-------0-------0-------2-------2-------2-------2--------|

  G7               C
A|------------------------------------------------------------------|
E|---1---1---1---1---1---1---1---1---0---0---0---0---0---0---0---0--|
C|-----2-------2-------2-------2-------0-------0-------0-------0----|
G|-0-------0-------0-------0-------0-------0-------0-------0--------|

  F                F7
A|------------------------------------------------------------------|
E|---1---1---1---1---1---1---1---1---1---1---1---1---1---1---1---1--|
C|-----0-------0-------0-------0-------3-------3-------3-------3----|
G|-2-------2-------2-------2-------2-------2-------2-------2--------|

  Bb               G7
A|------------------------------------------------------------------|
E|---1---1---1---1---1---1---1---1---1---1---1---1---1---1---1---1--|
C|-----2-------2-------2-------2-------2-------2-------2-------2----|
G|-3-------3-------3-------3-------0-------0-------0-------0--------|

  F        C        Dm
A|------------------------------------------------------------------|
E|---1---1---1---1---0---0---0---0---1---1---1---1---1---1---1---1--|
C|-----0-------0-------0-------0-------2-------2-------2-------2----|
G|-2-------2-------0-------0-------2-------2-------2-------2--------|

  Bb       C        F
A|---------------------------------|
E|---1---1---1---1---0---0---0---0-|
C|-----0-------0-------0-------0---|
G|-2-------2-------0-------0-------|

  F        C       Dm        Bb
A|-----------------------0h1-1p0-----------------------------------|
E|---1---1---1---1---0-----------1---1---1---1---1---1---1---1---1-|
C|-----0-------0-------0---------------2-------2-------2-------2---|
G|-2-------2-------0---------------2-------2-------3-------3-------|

  F        C        F
A|-----------------------0h1-1p0-----------------------------------|
E|---1---1---1---1---0-----------1---1---1---1---1---1---1---1---1-|
C|-----0-------0-------0---------------0-------0-------0-------0---|
G|-2-------2-------0---------------2-------2-------2-------2-------|


Verse3:
  F        C        Dm
A|-----------------------------------------------------------------|
E|---1---1---1---1---0---0---0---0---1---1---1---1---1---1---1---1-|
C|-----0-------0-------0-------0-------2-------2-------2-------2---|
G|-2-------2-------0-------0-------2-------2-------2-------2-------|

  Bb               F        C
A|-------------------------------------------------------0h1-1p0---|
E|---1---1---1---1---1---1---1---1---1---1---1---1---0-------------|
C|-----2-------2-------2-------2-------0-------0-------0-----------|
G|-3-------3-------3-------3-------2-------2-------0---------------|

  F
A|---------------------------------|
E|---1---1---1---1---1---1---1---1-|
C|-----0-------0-------0-------0---|
G|-2-------2-------2-------2-------|

  F        C        Dm
A|------------------------------------------------------------------|
E|---1---1---1---1---0---0---0---0---1---1---1---1---1---1---1---1--|
C|-----0-------0-------0-------0-------2-------2-------2-------2----|
G|-2-------2-------0-------0-------2-------2-------2-------2--------|

  G7               C
A|------------------------------------------------------------------|
E|---1---1---1---1---1---1---1---1---0---0---0---0---0---0---0---0--|
C|-----2-------2-------2-------2-------0-------0-------0-------0----|
G|-0-------0-------0-------0-------0-------0-------0-------0--------|

  F                F7
A|------------------------------------------------------------------|
E|---1---1---1---1---1---1---1---1---1---1---1---1---1---1---1---1--|
C|-----0-------0-------0-------0-------3-------3-------3-------3----|
G|-2-------2-------2-------2-------2-------2-------2-------2--------|

  Bb               G7
A|------------------------------------------------------------------|
E|---1---1---1---1---1---1---1---1---1---1---1---1---1---1---1---1--|
C|-----2-------2-------2-------2-------2-------2-------2-------2----|
G|-3-------3-------3-------3-------0-------0-------0-------0--------|

  F        C        Dm
A|------------------------------------------------------------------|
E|---1---1---1---1---0---0---0---0---1---1---1---1---1---1---1---1--|
C|-----0-------0-------0-------0-------2-------2-------2-------2----|
G|-2-------2-------0-------0-------2-------2-------2-------2--------|

  Bb       C        F
A|---------------------------------|
E|---1---1---1---1---0---0---0---0-|
C|-----0-------0-------0-------0---|
G|-2-------2-------0-------0-------|

  F        C       Dm        Bb
A|-----------------------0h1-1p0-----------------------------------|
E|---1---1---1---1---0-----------1---1---1---1---1---1---1---1---1-|
C|-----0-------0-------0---------------2-------2-------2-------2---|
G|-2-------2-------0---------------2-------2-------3-------3-------|

  F        C        F
A|-----------------------0h1-1p0-----------------------------------|
E|---1---1---1---1---0-----------1---1---1---1---1---1---1---1---1-|
C|-----0-------0-------0---------------0-------0-------0-------0---|
G|-2-------2-------0---------------2-------2-------2-------2-------|


Verse4:
  F        C        Dm
A|-----------------------------------------------------------------|
E|---1---1---1---1---0---0---0---0---1---1---1---1---1---1---1---1-|
C|-----0-------0-------0-------0-------2-------2-------2-------2---|
G|-2-------2-------0-------0-------2-------2-------2-------2-------|

  Bb               F        C
A|-------------------------------------------------------0h1-1p0---|
E|---1---1---1---1---1---1---1---1---1---1---1---1---0-------------|
C|-----2-------2-------2-------2-------0-------0-------0-----------|
G|-3-------3-------3-------3-------2-------2-------0---------------|

  F
A|---------------------------------|
E|---1---1---1---1---1---1---1---1-|
C|-----0-------0-------0-------0---|
G|-2-------2-------2-------2-------|

  F        C        Dm
A|------------------------------------------------------------------|
E|---1---1---1---1---0---0---0---0---1---1---1---1---1---1---1---1--|
C|-----0-------0-------0-------0-------2-------2-------2-------2----|
G|-2-------2-------0-------0-------2-------2-------2-------2--------|

  G7               C
A|------------------------------------------------------------------|
E|---1---1---1---1---1---1---1---1---0---0---0---0---0---0---0---0--|
C|-----2-------2-------2-------2-------0-------0-------0-------0----|
G|-0-------0-------0-------0-------0-------0-------0-------0--------|

  F                F7
A|------------------------------------------------------------------|
E|---1---1---1---1---1---1---1---1---1---1---1---1---1---1---1---1--|
C|-----0-------0-------0-------0-------3-------3-------3-------3----|
G|-2-------2-------2-------2-------2-------2-------2-------2--------|

  Bb               G7
A|------------------------------------------------------------------|
E|---1---1---1---1---1---1---1---1---1---1---1---1---1---1---1---1--|
C|-----2-------2-------2-------2-------2-------2-------2-------2----|
G|-3-------3-------3-------3-------0-------0-------0-------0--------|

  F        C        Dm
A|------------------------------------------------------------------|
E|---1---1---1---1---0---0---0---0---1---1---1---1---1---1---1---1--|
C|-----0-------0-------0-------0-------2-------2-------2-------2----|
G|-2-------2-------0-------0-------2-------2-------2-------2--------|

  Bb       C        F
A|---------------------------------|
E|---1---1---1---1---0---0---0---0-|
C|-----0-------0-------0-------0---|
G|-2-------2-------0-------0-------|

  F        C       Dm        Bb
A|-----------------------0h1-1p0-----------------------------------|
E|---1---1---1---1---0-----------1---1---1---1---1---1---1---1---1-|
C|-----0-------0-------0---------------2-------2-------2-------2---|
G|-2-------2-------0---------------2-------2-------3-------3-------|

  F        C        F
A|-----------------------0h1-1p0-------------------0-|
E|---1---1---1---1---0-----------1---1---1---1---1-1-|
C|-----0-------0-------0---------------0-------0---0-|
G|-2-------2-------0---------------2-------2-------2-|

Almost there ...

Sign in to get your own page with links to favourite songs and more. You are just one click away...

Login with Facebook Login with Google