Log in

One click and you are in

Login with Facebook Login with Google

Why sign up and log in

Guitar Tabs Explorer
Bob Dylan guitar tabs for Corrina corrina

Guitar tabs

Song Title: Corrina, Corrina
Album: The Freewheelin' Bob Dylan

Tabbed by Charlie Lewis - sci-fi-lullaby@hotmail.co.uk

This is quite a rough tab but a hell of a lot better than everything else I can find,
pretty much everything's there but you'll have to sort out the layout yourselves and
improvise a bit :)

CAPO ON 1st FRET
TAB IS RELATIVE TO CAPO

INTRO:

e|-0--0--0--0-|-0--0--0--0-|
A chord diagramBB|--0--0--0--0|--0--0--0--0|
A chord diagramG+G|1--2--1--2--|1--------2--|
A chord diagramD MajorD|------------|---4--2-----|
A chord diagramA augmentedA|---0-----0--|---------0--|
A chord diagramE MajorE|4-----4-----|4--2--0-----|

                          |
                          |In this part slide on the
                          |A chord diagramG+G string as much as possible
                          |and hammer on the 1st fret
                          |
Corrina, Corrina,         |
|------------|------------|-4--5--4--2-|-0--2--0--2-|
|0-0-0-0-0-0-|2-2-2-4-42-2|------------|------------|
|-1-1-1-1-1-1|-2-2-2-4--2-|4-46-64-42-2|1-12-21-12-2|
|------------|------------|------------|------------|
|---0--------|---0--2--0--|------------|------------|
|4-----4--2--|0-----------|4--5--4--2-2|0--2--0--2--|
                          |
Corrina, Corrina,         |
|------------|------------|-4--5--4--2-|-0--2--0--2-|
|0-0-0-0-0-0-|2-2-2-4-42-2|------------|------------|
|-1-1-1-1-1-1|-2-2-2-4--2-|4-46-64-42-2|1-12-21-12-2|
|------------|------------|------------|------------|
|---0--------|---0--2--0--|------------|------------|
|4-----4--2--|0-----------|4--5--4--2-2|0--2--0--2--|

I've been worried 'bout you baby...
|-4-4-4-7-7-7|-5-5-5-7--5-|-4--5--7--5-|-4--2--0--2-|
|------------|------------|------------|------------|
|4-4-4-8-8-8-|6-6-6-8-86-6|4-46-67-76-6|4-42-21-12-2|
|------------|------------|------------|------------|
|2--2--------|------------|------------|------------|
|------7--7--|5--5--7--5--|4--5--7--5--|4--2--0--2--|

Rinse and repeat

Other versions of Corrina Corrina

Corrina corrinaChords
Corrina corrina (Ver. 2)Tabs

Almost there ...

Sign in to get your own page with links to favourite songs and more. You are just one click away...

Login with Facebook Login with Google