Log in

One click and you are in

Login with Facebook Login with Google

Why sign up and log in

Guitar Tabs Explorer
Dust guitar tabs for Goin easy

Guitar tabs with lyrics

Goin' Easy
by Dust


[NOTE: This is just the acoustic rhythm guitar part... no lead]

 Intro
    |-3-|   |-3-|   |-3-|   |-3-|                 |-3-|
|-2-2-2-2-2-2-2-0-1-1-1-1-1-1-1-0-|---------------------|
|-3-3-3-3-3-3-3-0-1-1-1-1-1-1-1-0-|---------------2-2-0-|
|-2-2-2-2-2-2-2-0-2-2-2-2-2-2-2-0-|-2-------2-----2-2-0-|
|-0-0-0-0-0-0-0-0-3-3-3-3-3-3-3-0-|-2-2-4-4-2-2-4-2-2-0-|
|-----------------3-3-3-3-3-3-3---|-0-0-0-0-0-0-0-0-0---|
|-----------------1-1-1-1-1-1-1---|---------------------|
  |-3-|   |-3-|   |-3-|   |-3-|                   |-3-|
|-------0---0-0-2-0-2-3-2-2-2-0-||-----------------------||
|---------1-1-0-3-3-3-3-3-3-3-0-||o---------------2-2-0-o||
|-----0-----0-0-2-2-2-2-2-2-2-0-||--2-------2-----2-2-0--||
|---2-----------0-0-0-0-0-0-0-0-||--2-2-4-4-2-2-4-2-2-0--||
|-3-----------------------------||o-0-0-0-0-0-0-0-0-0---o||
|-------------------------------||-----------------------||


 Verse I
                |-3-|                   |-3-|
|-----------------------|-----------------------|
|-----------------------|-----------------------|
|-2-------2-----2-2-----|-2-------2-----2-2-----|
|-2-2-4-4-2-2-4-2-2-----|-2-2-4-4-2-2-4-2-2-----|
|-0-0-0-0-0-0-0-0-0-----|-0-0-0-0-0-0-0-0-0-----|
|-------------------3b4-|-------------------3b4-|


                |-3-|                   |-3-|
|-----------------------|----------------------||
|-----------------------|----------------------||
|-2-------2-----2-2-----|-2-------2-----2-2-0--||
|-2-2-4-4-2-2-4-2-2-----|-2-2-4-4-2-2-4-2-2-0--||
|-0-0-0-0-0-0-0-0-0-----|-0-0-0-0-0-0-0-0-0----||
|-------------------3b4-|----------------------||

 Chorus I
    |-3-|   |-3-|   |-3-|   |-3-|                 |-3-|
|-2-2-2-2-2-2-2-0-1-1-1-1-1-1-1-0-|---------------------|
|-3-3-3-3-3-3-3-0-1-1-1-1-1-1-1-0-|---------------2-2-0-|
|-2-2-2-2-2-2-2-0-2-2-2-2-2-2-2-0-|-2-------2-----2-2-0-|
|-0-0-0-0-0-0-0-0-3-3-3-3-3-3-3-0-|-2-2-4-4-2-2-4-2-2-0-|
|-----------------3-3-3-3-3-3-3---|-0-0-0-0-0-0-0-0-0---|
|-----------------1-1-1-1-1-1-1---|---------------------|


  |-3-|   |-3-|   |-3-|   |-3-|                   |-3-|
|-------0---0-0-2-0-2-3-2-2-2-0-||-----------------------||
|---------1-1-0-3-3-3-3-3-3-3-0-||o---------------2-2-0-o||
|-----0-----0-0-2-2-2-2-2-2-2-0-||--2-------2-----2-2-0--||
|---2-----------0-0-0-0-0-0-0-0-||--2-2-4-4-2-2-4-2-2-0--||
|-3-----------------------------||o-0-0-0-0-0-0-0-0-0---o||
|-------------------------------||-----------------------||


 Verse II
                |-3-|                   |-3-|
|-----------------------|-----------------------|
|-----------------------|-----------------------|
|-2-------2-----2-2-----|-2-------2-----2-2-----|
|-2-2-4-4-2-2-4-2-2-----|-2-2-4-4-2-2-4-2-2-----|
|-0-0-0-0-0-0-0-0-0-----|-0-0-0-0-0-0-0-0-0-----|
|-------------------3b4-|-------------------3b4-|


                |-3-|                   |-3-|
|-----------------------|----------------------||
|-----------------------|----------------------||
|-2-------2-----2-2-----|-2-------2-----2-2-0--||
|-2-2-4-4-2-2-4-2-2-----|-2-2-4-4-2-2-4-2-2-0--||
|-0-0-0-0-0-0-0-0-0-----|-0-0-0-0-0-0-0-0-0----||
|-------------------3b4-|----------------------||


    |-3-|   |-3-|   |-3-|   |-3-|                 |-3-|
|-2-2-2-2-2-2-2-0-1-1-1-1-1-1-1-0-|---------------------|
|-3-3-3-3-3-3-3-0-1-1-1-1-1-1-1-0-|---------------2-2-0-|
|-2-2-2-2-2-2-2-0-2-2-2-2-2-2-2-0-|-2-------2-----2-2-0-|
|-0-0-0-0-0-0-0-0-3-3-3-3-3-3-3-0-|-2-2-4-4-2-2-4-2-2-0-|
|-----------------3-3-3-3-3-3-3---|-0-0-0-0-0-0-0-0-0---|
|-----------------1-1-1-1-1-1-1---|---------------------|


  |-3-|   |-3-|   |-3-|   |-3-|                   |-3-|
|-------0---0-0-2-0-2-3-2-2-2-0-||-----------------------||
|---------1-1-0-3-3-3-3-3-3-3-0-||o---------------2-2-0-o||
|-----0-----0-0-2-2-2-2-2-2-2-0-||--2-------2-----2-2-0--||
|---2-----------0-0-0-0-0-0-0-0-||--2-2-4-4-2-2-4-2-2-0--||
|-3-----------------------------||o-0-0-0-0-0-0-0-0-0---o||
|-------------------------------||-----------------------||


 Bridge I
    |-3-|   |-3-|   |-3-|   |-3-|     |-3-|   |-3-|   |-3-|
|-2-2-2-2-2-2-2-2-2-2-2-2-2-2-2-2-|-2-2-2-2-2-2-2-2-2-2-2-2-2-1--|
|-4-4-4-4-4-4-4-4-4-4-4-4-4-4-4-4-|-4-4-4-4-4-4-4-4-4-4-4-4-4-3--|
|-2-2-2-2-2-2-2-2-2-2-2-2-2-2-2-2-|-2-2-2-2-2-2-2-2-2-2-2-2-2-1--|
|-4-4-4-4-4-4-4-4-4-4-4-4-4-4-4-4-|-4-4-4-4-4-4-4-4-4-4-4-4-4-3--|
|-2-2-2-2-2-2-2-2-2-2-2-2-2-2-2-2-|-2-2-2-2-2-2-2-2-2-2-2-2-2-1--|
|---------------------------------|------------------------------|


    |-3-|   |-3-|   |-3-|   |-3-|     |-3-|   |-3-|   |-3-|
|-0-0-0-0-0-0-0-0-0-0-0-0-0-0-0-0-|-0-0-0-0-0-0-0-0-0-0-0-0-0-1--|
|-2-2-2-2-2-2-2-2-2-2-2-2-2-2-2-2-|-2-2-2-2-2-2-2-2-2-2-2-2-2-3--|
|-0-0-0-0-0-0-0-0-0-0-0-0-0-0-0-0-|-0-0-0-0-0-0-0-0-0-0-0-0-0-1--|
|-2-2-2-2-2-2-2-2-2-2-2-2-2-2-2-2-|-2-2-2-2-2-2-2-2-2-2-2-2-2-3--|
|-0-0-0-0-0-0-0-0-0-0-0-0-0-0-0-0-|-0-0-0-0-0-0-0-0-0-0-0-0-0-1--|
|---------------------------------|------------------------------|


   |-3-|   |-3-|   |-3-|   |-3-|     |-3-|   |-3-|   |-3-|   |-3-|
|-2-2-2-2-2-2-2-2-2-2-2-2-2-2-2-2-|-2-2-2-2-2-2-2-2-2-2-2-2-2-2-2-2-|
|-4-4-4-4-4-4-4-4-4-4-4-4-4-4-4-4-|-4-4-4-4-4-4-4-4-4-4-4-4-4-4-4-4-|
|-2-2-2-2-2-2-2-2-2-2-2-2-2-2-2-2-|-2-2-2-2-2-2-2-2-2-2-2-2-2-2-2-2-|
|-4-4-4-4-4-4-4-4-4-4-4-4-4-4-4-4-|-4-4-4-4-4-4-4-4-4-4-4-4-4-4-4-4-|
|-2-2-2-2-2-2-2-2-2-2-2-2-2-2-2-2-|-2-2-2-2-2-2-2-2-2-2-2-2-2-2-2-2-|
|---------------------------------|---------------------------------|


    |-3-|   |-3-|   |-3-|   |-3-|

|-0-0-0-0-0-0-0-0-1-1-1-1-1-1-1-1-|-0----||
|-0-0-0-0-0-0-0-0-1-1-1-1-1-1-1-1-|-0----||
|-1-1-1-1-1-1-1-1-2-2-2-2-2-2-2-2-|-1----||
|-2-2-2-2-2-2-2-2-3-3-3-3-3-3-3-3-|-2----||
|-2-2-2-2-2-2-2-2-3-3-3-3-3-3-3-3-|-2----||
|-0-0-0-0-0-0-0-0-1-1-1-1-1-1-1-1-|-0----||


 Guitar Solo
                |-3-|                   |-3-|

|-----------------------|-----------------------|
|-----------------------|-----------------------|
|-2-------2-----2-2-----|-2-------2-----2-2-----|
|-2-2-4-4-2-2-4-2-2-----|-2-2-4-4-2-2-4-2-2-----|
|-0-0-0-0-0-0-0-0-0-----|-0-0-0-0-0-0-0-0-0-----|
|-------------------3b4-|-------------------3b4-|


                |-3-|                   |-3-|
|-----------------------|----------------------|
|-----------------------|----------------------|
|-2-------2-----2-2-----|-2-------2-----2-2-0--|
|-2-2-4-4-2-2-4-2-2-----|-2-2-4-4-2-2-4-2-2-0--|
|-0-0-0-0-0-0-0-0-0-----|-0-0-0-0-0-0-0-0-0----|
|-------------------3b4-|----------------------|


    |-3-|   |-3-|   |-3-|   |-3-|                 |-3-|
|-2-2-2-2-2-2-2-0-1-1-1-1-1-1-1-0-|---------------------|
|-3-3-3-3-3-3-3-0-1-1-1-1-1-1-1-0-|---------------2-2-0-|
|-2-2-2-2-2-2-2-0-2-2-2-2-2-2-2-0-|-2-------2-----2-2-0-|
|-0-0-0-0-0-0-0-0-3-3-3-3-3-3-3-0-|-2-2-4-4-2-2-4-2-2-0-|
|-----------------3-3-3-3-3-3-3---|-0-0-0-0-0-0-0-0-0---|
|-----------------1-1-1-1-1-1-1---|---------------------|


  |-3-|   |-3-|   |-3-|   |-3-|                   |-3-|
|-------0---0-0-2-0-2-3-2-2-2-0-||-----------------------||
|---------1-1-0-3-3-3-3-3-3-3-0-||o---------------2-2-0-o||
|-----0-----0-0-2-2-2-2-2-2-2-0-||--2-------2-----2-2-0--||
|---2-----------0-0-0-0-0-0-0-0-||--2-2-4-4-2-2-4-2-2-0--||
|-3-----------------------------||o-0-0-0-0-0-0-0-0-0---o||
|-------------------------------||-----------------------||


 Bridge II
   |-3-|   |-3-|   |-3-|   |-3-|     |-3-|   |-3-|   |-3-|
|-2-2-2-2-2-2-2-2-2-2-2-2-2-2-2-2-|-2-2-2-2-2-2-2-2-2-2-2-2-2-1--|
|-4-4-4-4-4-4-4-4-4-4-4-4-4-4-4-4-|-4-4-4-4-4-4-4-4-4-4-4-4-4-3--|
|-2-2-2-2-2-2-2-2-2-2-2-2-2-2-2-2-|-2-2-2-2-2-2-2-2-2-2-2-2-2-1--|
|-4-4-4-4-4-4-4-4-4-4-4-4-4-4-4-4-|-4-4-4-4-4-4-4-4-4-4-4-4-4-3--|
|-2-2-2-2-2-2-2-2-2-2-2-2-2-2-2-2-|-2-2-2-2-2-2-2-2-2-2-2-2-2-1--|
|---------------------------------|------------------------------|


    |-3-|   |-3-|   |-3-|   |-3-|     |-3-|   |-3-|   |-3-|
|-0-0-0-0-0-0-0-0-0-0-0-0-0-0-0-0-|-0-0-0-0-0-0-0-0-0-0-0-0-0-1--|
|-2-2-2-2-2-2-2-2-2-2-2-2-2-2-2-2-|-2-2-2-2-2-2-2-2-2-2-2-2-2-3--|
|-0-0-0-0-0-0-0-0-0-0-0-0-0-0-0-0-|-0-0-0-0-0-0-0-0-0-0-0-0-0-1--|
|-2-2-2-2-2-2-2-2-2-2-2-2-2-2-2-2-|-2-2-2-2-2-2-2-2-2-2-2-2-2-3--|
|-0-0-0-0-0-0-0-0-0-0-0-0-0-0-0-0-|-0-0-0-0-0-0-0-0-0-0-0-0-0-1--|
|---------------------------------|------------------------------|


    |-3-|   |-3-|   |-3-|   |-3-|     |-3-|   |-3-|   |-3-|   |-3-|
|-2-2-2-2-2-2-2-2-2-2-2-2-2-2-2-2-|-2-2-2-2-2-2-2-2-2-2-2-2-2-2-2-2-|
|-4-4-4-4-4-4-4-4-4-4-4-4-4-4-4-4-|-4-4-4-4-4-4-4-4-4-4-4-4-4-4-4-4-|
|-2-2-2-2-2-2-2-2-2-2-2-2-2-2-2-2-|-2-2-2-2-2-2-2-2-2-2-2-2-2-2-2-2-|
|-4-4-4-4-4-4-4-4-4-4-4-4-4-4-4-4-|-4-4-4-4-4-4-4-4-4-4-4-4-4-4-4-4-|
|-2-2-2-2-2-2-2-2-2-2-2-2-2-2-2-2-|-2-2-2-2-2-2-2-2-2-2-2-2-2-2-2-2-|
|---------------------------------|---------------------------------|


    |-3-|   |-3-|   |-3-|   |-3-|
|-0-0-0-0-0-0-0-0-1-1-1-1-1-1-1-1-|-0----||
|-0-0-0-0-0-0-0-0-1-1-1-1-1-1-1-1-|-0----||
|-1-1-1-1-1-1-1-1-2-2-2-2-2-2-2-2-|-1----||
|-2-2-2-2-2-2-2-2-3-3-3-3-3-3-3-3-|-2----||
|-2-2-2-2-2-2-2-2-3-3-3-3-3-3-3-3-|-2----||
|-0-0-0-0-0-0-0-0-1-1-1-1-1-1-1-1-|-0----||


 Verse III
                |-3-|                   |-3-|
|-----------------------|-----------------------|
|-----------------------|-----------------------|
|-2-------2-----2-2-----|-2-------2-----2-2-----|
|-2-2-4-4-2-2-4-2-2-----|-2-2-4-4-2-2-4-2-2-----|
|-0-0-0-0-0-0-0-0-0-----|-0-0-0-0-0-0-0-0-0-----|
|-------------------3b4-|-------------------3b4-|


                |-3-|                   |-3-|
|-----------------------|----------------------|
|-----------------------|----------------------|
|-2-------2-----2-2-----|-2-------2-----2-2-0--|
|-2-2-4-4-2-2-4-2-2-----|-2-2-4-4-2-2-4-2-2-0--|
|-0-0-0-0-0-0-0-0-0-----|-0-0-0-0-0-0-0-0-0----|
|-------------------3b4-|----------------------|


    |-3-|   |-3-|   |-3-|   |-3-|                 |-3-|
|-2-2-2-2-2-2-2-0-1-1-1-1-1-1-1-0-|---------------------|
|-3-3-3-3-3-3-3-0-1-1-1-1-1-1-1-0-|---------------2-2-0-|
|-2-2-2-2-2-2-2-0-2-2-2-2-2-2-2-0-|-2-------2-----2-2-0-|
|-0-0-0-0-0-0-0-0-3-3-3-3-3-3-3-0-|-2-2-4-4-2-2-4-2-2-0-|
|-----------------3-3-3-3-3-3-3---|-0-0-0-0-0-0-0-0-0---|
|-----------------1-1-1-1-1-1-1---|---------------------|


  |-3-|   |-3-|   |-3-|   |-3-|                   |-3-|
|-------0---0-0-2-0-2-3-2-2-2-0-||-----------------------||
|---------1-1-0-3-3-3-3-3-3-3-0-||o---------------2-2-0-o||
|-----0-----0-0-2-2-2-2-2-2-2-0-||--2-------2-----2-2-0--||
|---2-----------0-0-0-0-0-0-0-0-||--2-2-4-4-2-2-4-2-2-0--||
|-3-----------------------------||o-0-0-0-0-0-0-0-0-0---o||
|-------------------------------||-----------------------||


 Outro
    |-3-|   |-3-|   |-3-|   |-3-|
|-2-2-2-2-2-2-2-0-1-1-1-1-1-1-1-0-|
|-3-3-3-3-3-3-3-0-1-1-1-1-1-1-1-0-|
|-2-2-2-2-2-2-2-0-2-2-2-2-2-2-2-0-|
|-0-0-0-0-0-0-0-0-3-3-3-3-3-3-3-0-|
|-----------------3-3-3-3-3-3-3---|
|-----------------1-1-1-1-1-1-1---|


                |-3-|   |-3-|   |-3-|
|---------------------|-------0---0-0-2----|-(2)----*|
|---------------2-2-0-|---------1-1-0-3----|-(3)----*|
|-2-------2-----2-2-0-|-----0-----0-0-2----|-(2)----*|
|-2-2-4-4-2-2-4-2-2-0-|---2-----------0----|-(0)----*|
|-0-0-0-0-0-0-0-0-0---|-3------------------|--------*|

Almost there ...

Sign in to get your own page with links to favourite songs and more. You are just one click away...

Login with Facebook Login with Google